Home » O » One Direction »

One Direction - Fools Gold Tabs

Artists:  A B C D E F G H I J K L M N O P Q R S T U V W X Y Z # 

Fools Gold Tabs

(ver. 1) Click to play this song!
One Direction
Tuning: Capo on 2

Intro:
e|----------------------------------------0-------------------------0--------|
B|--------0-------------------------------0-------------------------0--------|
G|----1---1---1---1---1---1h2---2---2p1---1---1---1---1---1---1h2-------2----|
D|----------------2---2------------------------------------------------------|
A|---------------------------------------------------------------------------|
E|--0---0---0---0---0---0-----0---0-----0---0---0---0---0---0-----0---0------|

Verse:
  I'm like a crow on a wire              You're the shining distraction that makes me
e|------------------------------0--------------------------------------------|
B|---------------------------------------------------------------------------|
G|----1---1---1---1---1---1h2-------2p1--1---1---1---1---1---1---1---1-------|
D|---------------------------------------------------------------------------|
A|---------------------------------------------------------------------------|
E|--0---0---0---0---0---0-----0---0----0---0---0---0---0---0---0---0---------|

   fly                     Oohh
e|---------------------------------------------------------------------------|
B|----2-------2-------2-------2---------0-------0-------0---------0----------|
G|--------2-------2-------2-------2---------1-------1-------1h2-------2------|
D|------2-------2-------2-------2---------2-------2-------2---------2--------|
A|--0-------0-------0-------0------------------------------------------------|
E|------------------------------------0-------0-------0---------0------------|

  I'm like a boat on the water          You're the raise on the waves that calm my
e|------------------------------0--------------------------------------------|
B|------------------------------------------------------------------0--------|
G|----1---1---1---1---1---1h2-------2-----1---1---1---1---1---1h2-------2----|
D|---------------------------------------------------------------------------|
A|---------------------------------------------------------------------------|
E|--0---0---0---0---0---0-----0---0-----0---0---0---0---0---0-----0---0------|

  mi--nd                    Oh, every time                        And I
e|---------------------------------------------------------------------------|
B|----2-------2-------2-------2---------0-------0-------0---------0----------|
G|--------2-------2-------2-------2---------1-------1-------1h2-------2------|
D|------2-------2-------2-------2---------2-------2-------2---------2--------|
A|--0-------0-------0-------0------------------------------------------------|
E|------------------------------------0-------0-------0---------0------------|

   know in my heart               you're not a constant star
e|----------------------------------------------------------------------------------|
B|----4---4---4~-----5---5---5~-----0---0---0---0----4---4---4---4---4---4---4---4--|
G|----4---4---4~-----6---6---6~-----1---1---1---1----4---4---4---4---4---4---4---4--|
D|----------------------------------------------------------------------------------|
A|--2---2---2------4---4---4-----------------------2---2---2---2---2---2---2---2----|
E|--------------------------------0---0---0---0-------------------------------------|

Chorus:

And yeah, I've let you use me from the
                                     day that we first met    But I'm
    1   +   2   +   3   +   4   +    1   +   2   +   3   +   4   +
    d   d u d   d u   u d   d u d u  d   d u d   d u   u d   d u d u
e|--0---0-0-0---0-0---0-0---0-0-0-0--0---0-0-0---0-0---0-0---0-0-0-0-------|
B|--2---2-2-2---2-2---2-2---2-2-2-2--0---0-0-0---0-0---0-0---0-0-0-0-------|
G|--2---2-2-2---2-2---2-2---2-2-2-2--1---1-1-1---1-1---1-1---1-1-1-1-------|
D|--2---2-2-2---2-2---2-2---2-2-2-2--2---2-2-2---2-2---2-2---2-2-2-2-------|
A|--0---0-0-0---0-0---0-0---0-0-0-0--2---2-2-2---2-2---2-2---2-2-2-2-------|
E|-----------------------------------0---0-0-0---0-0---0-0---0-0-0-0-------|

    not done    yet         falling for your
                                         fool's  go-o-old
    1   +   2   +   3   +   4   +    1   +   2   +   3   +   4   +
    d   d u d   d   d u d   d u d u  d   d u d   d u   u d   d u d u
e|--4---4-4-4---0---0-0-0---0-0-0-0--0---0-0-0---0-0---0-0---0-0-0-0-------|
B|--5---5-5-5---2---2-2-2---2-2-2-2--0---0-0-0---0-0---0-0---0-0-0-0-------|
G|--6---6-6-6---2---2-2-2---2-2-2-2--1---1-1-1---1-1---1-1---1-1-1-1-------|
D|--6---6-6-6---2---2-2-2---2-2-2-2--2---2-2-2---2-2---2-2---2-2-2-2-------|
A|--4---4-4-4---0---0-0-0---0-0-0-0--2---2-2-2---2-2---2-2---2-2-2-2-------|
E|-----------------------------------0---0-0-0---0-0---0-0---0-0-0-0-------|

And I knew that you'd turn it on for e-very-one you met      But I
    1   +   2   +   3   +   4   +    1   +   2   +   3   +   4   +
    d   d u d   d u   u d   d u d u  d   d u d   d u   u d   d u d u
e|--0---0-0-0---0-0---0-0---0-0-0-0--0---0-0-0---0-0---0-0---0-0-0-0-------|
B|--2---2-2-2---2-2---2-2---2-2-2-2--0---0-0-0---0-0---0-0---0-0-0-0-------|
G|--2---2-2-2---2-2---2-2---2-2-2-2--1---1-1-1---1-1---1-1---1-1-1-1-------|
D|--2---2-2-2---2-2---2-2---2-2-2-2--2---2-2-2---2-2---2-2---2-2-2-2-------|
A|--0---0-0-0---0-0---0-0---0-0-0-0--2---2-2-2---2-2---2-2---2-2-2-2-------|
E|-----------------------------------0---0-0-0---0-0---0-0---0-0-0-0-------|

    don't   regret          falling for your
                                         fools  go-o-old
    1   +   2   +   3   +   4   +    1   +   2   +   3   +   4   +
    d   d u d   d   d u d   d u d u  d   d u d   d u   u d   d u d u
e|--4---4-4-4---0---0-0-0---0-0-0-0--0---0-0-0---0-0---0-0---0-0-0-0-------|
B|--5---5-5-5---2---2-2-2---2-2-2-2--0---0-0-0---0-0---0-0---0-0-0-0-------|
G|--6---6-6-6---2---2-2-2---2-2-2-2--1---1-1-1---1-1---1-1---1-1-1-1-------|
D|--6---6-6-6---2---2-2-2---2-2-2-2--2---2-2-2---2-2---2-2---2-2-2-2-------|
A|--4---4-4-4---0---0-0-0---0-0-0-0--2---2-2-2---2-2---2-2---2-2-2-2-------|
E|-----------------------------------0---0-0-0---0-0---0-0---0-0-0-0-------|

e|----------------------------------------0-------------------------0--------|
B|--------0-------------------------------0-------------------------0--------|
G|----1---1---1---1---1---1h2---2---2p1---1---1---1---1---1---1h2-------2----|
D|----------------2---2------------------------------------------------------|
A|---------------------------------------------------------------------------|
E|--0---0---0---0---0---0-----0---0-----0---0---0---0---0---0-----0---0------|

Verse 2:
        I'm the first to admit that I'm reckless
                                           I get lost in your beauty and I can't
e|------------------------------0--------------------------------------------|
B|---------------------------------------------------------------------------|
G|----1---1---1---1---1---1h2-------2p1--1---1---1---1---1---1---1---1-------|
D|---------------------------------------------------------------------------|
A|---------------------------------------------------------------------------|
E|--0---0---0---0---0---0-----0---0----0---0---0---0---0---0---0---0---------|

   see--                  two feet in front of me                 And I
e|---------------------------------------------------------------------------|
B|----2-------2-------2-------2---------0-------0-------0-------0------------|
G|--------2-------2-------2-------2---------1-------1-------1h2------2-------|
D|------2-------2-------2-------2---------2-------2-------2--------2---------|
A|--0-------0-------0-------0------------------------------------------------|
E|------------------------------------0-------0-------0----------0-----------|

   know in my heart               you're just a moving part
e|----------------------------------------------------------------------------------|
B|----4---4---4~-----5---5---5~-----0---0---0---0----4---4---4---4---4---4---4---4--|
G|----4---4---4~-----6---6---6~-----1---1---1---1----4---4---4---4---4---4---4---4--|
D|----------------------------------------------------------------------------------|
A|--2---2---2------4---4---4-----------------------2---2---2---2---2---2---2---2----|
E|--------------------------------0---0---0---0-------------------------------------|

Chorus:

And yeah, I've let you use me from the
                                     day that we first met    But I'm
    1   +   2   +   3   +   4   +    1   +   2   +   3   +   4   +
    d   d u d   d u   u d   d u d u  d   d u d   d u   u d   d u d u
e|--0---0-0-0---0-0---0-0---0-0-0-0--0---0-0-0---0-0---0-0---0-0-0-0-------|
B|--2---2-2-2---2-2---2-2---2-2-2-2--0---0-0-0---0-0---0-0---0-0-0-0-------|
G|--2---2-2-2---2-2---2-2---2-2-2-2--1---1-1-1---1-1---1-1---1-1-1-1-------|
D|--2---2-2-2---2-2---2-2---2-2-2-2--2---2-2-2---2-2---2-2---2-2-2-2-------|
A|--0---0-0-0---0-0---0-0---0-0-0-0--2---2-2-2---2-2---2-2---2-2-2-2-------|
E|-----------------------------------0---0-0-0---0-0---0-0---0-0-0-0-------|

    not done    yet         falling for your
                                         fool's  go-o-old
    1   +   2   +   3   +   4   +    1   +   2   +   3   +   4   +
    d   d u d   d   d u d   d u d u  d   d u d   d u   u d   d u d u
e|--4---4-4-4---0---0-0-0---0-0-0-0--0---0-0-0---0-0---0-0---0-0-0-0-------|
B|--5---5-5-5---2---2-2-2---2-2-2-2--0---0-0-0---0-0---0-0---0-0-0-0-------|
G|--6---6-6-6---2---2-2-2---2-2-2-2--1---1-1-1---1-1---1-1---1-1-1-1-------|
D|--6---6-6-6---2---2-2-2---2-2-2-2--2---2-2-2---2-2---2-2---2-2-2-2-------|
A|--4---4-4-4---0---0-0-0---0-0-0-0--2---2-2-2---2-2---2-2---2-2-2-2-------|
E|-----------------------------------0---0-0-0---0-0---0-0---0-0-0-0-------|

And I knew that you'd turn it on for e-very-one you met      But I
    1   +   2   +   3   +   4   +    1   +   2   +   3   +   4   +
    d   d u d   d u   u d   d u d u  d   d u d   d u   u d   d u d u
e|--0---0-0-0---0-0---0-0---0-0-0-0--0---0-0-0---0-0---0-0---0-0-0-0-------|
B|--2---2-2-2---2-2---2-2---2-2-2-2--0---0-0-0---0-0---0-0---0-0-0-0-------|
G|--2---2-2-2---2-2---2-2---2-2-2-2--1---1-1-1---1-1---1-1---1-1-1-1-------|
D|--2---2-2-2---2-2---2-2---2-2-2-2--2---2-2-2---2-2---2-2---2-2-2-2-------|
A|--0---0-0-0---0-0---0-0---0-0-0-0--2---2-2-2---2-2---2-2---2-2-2-2-------|
E|-----------------------------------0---0-0-0---0-0---0-0---0-0-0-0-------|

    don't   regret          falling for your
                                         fools  go-o-old
    1   +   2   +   3   +   4   +    1   +   2   +   3   +   4   +
    d   d u d   d   d u d   d u d u  d   d u d   d u   u d   d u d u
e|--4---4-4-4---0---0-0-0---0-0-0-0--0---0-0-0---0-0---0-0---0-0-0-0-------|
B|--5---5-5-5---2---2-2-2---2-2-2-2--0---0-0-0---0-0---0-0---0-0-0-0-------|
G|--6---6-6-6---2---2-2-2---2-2-2-2--1---1-1-1---1-1---1-1---1-1-1-1-------|
D|--6---6-6-6---2---2-2-2---2-2-2-2--2---2-2-2---2-2---2-2---2-2-2-2-------|
A|--4---4-4-4---0---0-0-0---0-0-0-0--2---2-2-2---2-2---2-2---2-2-2-2-------|
E|-----------------------------------0---0-0-0---0-0---0-0---0-0-0-0-------|

                                                                  Yeah I
e|----------------------------------------0-------------------------0--------|
B|--------0-------------------------------0-------------------------0--------|
G|----1---1---1---1---1---1h2---2---2p1---1---1---1---1---1---1h2-------2----|
D|----------------2---2------------------------------------------------------|
A|---------------------------------------------------------------------------|
E|--0---0---0---0---0---0-----0---0-----0---0---0---0---0---0-----0---0------|

Bridge:

    know your love's not real     That's not the way it feels
e|--2~-------------------4~-------0~----------------------------------------|
B|--4~-------------------5~-------0~--------------------------4~------------|
G|--4~-------------------6~-------1~----------------------4~------4~--4~----|
D|--4~-------------------6~-------2~------------------------4~------4~------|
A|--2~-------------------4~-------2~--------------------2~------------------|
E|--------------------------------0~----------------------------------------|

    That's not the way you feel         (build up to chorus)
                                         d   d u d   d u
e|--------0~-----------------------------2---2-2-2---2-2-----------------------|
B|------------0~------------4~-----------4---4-4-4---4-4-----------------------|
G|----1~----------1~----4~------4~--4~---4---4-4-4---4-4-----------------------|
D|------2~------2~--------4~------4~-----4---4-4-4---4-4-----------------------|
A|--------------------2~-----------------2---2-2-2---2-2-----------------------|
E|--0~-------------------------------------------------------------------------|

Chorus:

And yes, I've let you use me from the
                                     day that we first met    But I'm
    1   +   2   +   3   +   4   +    1   +   2   +   3   +   4   +
    d   d u d   d u   u d   d u d u  d   d u d   d u   u d   d u d u
e|--0---0-0-0---0-0---0-0---0-0-0-0--0---0-0-0---0-0---0-0---0-0-0-0-------|
B|--2---2-2-2---2-2---2-2---2-2-2-2--0---0-0-0---0-0---0-0---0-0-0-0-------|
G|--2---2-2-2---2-2---2-2---2-2-2-2--1---1-1-1---1-1---1-1---1-1-1-1-------|
D|--2---2-2-2---2-2---2-2---2-2-2-2--2---2-2-2---2-2---2-2---2-2-2-2-------|
A|--0---0-0-0---0-0---0-0---0-0-0-0--2---2-2-2---2-2---2-2---2-2-2-2-------|
E|-----------------------------------0---0-0-0---0-0---0-0---0-0-0-0-------|

    not done    yet         falling for your
                                         fool's  go-o-old
    1   +   2   +   3   +   4   +    1   +   2   +   3   +   4   +
    d   d u d   d   d u d   d u d u  d   d u d   d u   u d   d u d u
e|--4---4-4-4---0---0-0-0---0-0-0-0--0---0-0-0---0-0---0-0---0-0-0-0-------|
B|--5---5-5-5---2---2-2-2---2-2-2-2--0---0-0-0---0-0---0-0---0-0-0-0-------|
G|--6---6-6-6---2---2-2-2---2-2-2-2--1---1-1-1---1-1---1-1---1-1-1-1-------|
D|--6---6-6-6---2---2-2-2---2-2-2-2--2---2-2-2---2-2---2-2---2-2-2-2-------|
A|--4---4-4-4---0---0-0-0---0-0-0-0--2---2-2-2---2-2---2-2---2-2-2-2-------|
E|-----------------------------------0---0-0-0---0-0---0-0---0-0-0-0-------|

And I knew that you'd turn it on for e-very-one you met      But I
    1   +   2   +   3   +   4   +    1   +   2   +   3   +   4   +
    d   d u d   d u   u d   d u d u  d   d u d   d u   u d   d u d u
e|--0---0-0-0---0-0---0-0---0-0-0-0--0---0-0-0---0-0---0-0---0-0-0-0-------|
B|--2---2-2-2---2-2---2-2---2-2-2-2--0---0-0-0---0-0---0-0---0-0-0-0-------|
G|--2---2-2-2---2-2---2-2---2-2-2-2--1---1-1-1---1-1---1-1---1-1-1-1-------|
D|--2---2-2-2---2-2---2-2---2-2-2-2--2---2-2-2---2-2---2-2---2-2-2-2-------|
A|--0---0-0-0---0-0---0-0---0-0-0-0--2---2-2-2---2-2---2-2---2-2-2-2-------|
E|-----------------------------------0---0-0-0---0-0---0-0---0-0-0-0-------|

    don't   regret          falling for your
                                         fools  go-o-old
    1   +   2   +   3   +   4   +    1   +   2   +   3   +   4   +
    d   d u d   d   d u d   d u d u  d   d u d   d u   u d   d u d u
e|--4---4-4-4---0---0-0-0---0-0-0-0--0---0-0-0---0-0---0-0---0-0-0-0-------|
B|--5---5-5-5---2---2-2-2---2-2-2-2--0---0-0-0---0-0---0-0---0-0-0-0-------|
G|--6---6-6-6---2---2-2-2---2-2-2-2--1---1-1-1---1-1---1-1---1-1-1-1-------|
D|--6---6-6-6---2---2-2-2---2-2-2-2--2---2-2-2---2-2---2-2---2-2-2-2-------|
A|--4---4-4-4---0---0-0-0---0-0-0-0--2---2-2-2---2-2---2-2---2-2-2-2-------|
E|-----------------------------------0---0-0-0---0-0---0-0---0-0-0-0-------|

    Oohhh....
e|----------------------------------------0-------------------------0--------|
B|--------0-------------------------------0-------------------------0--------|
G|----1---1---1---1---1---1h2---2---2p1---1---1---1---1---1---1h2-------2----|
D|----------------2---2------------------------------------------------------|
A|---------------------------------------------------------------------------|
E|--0---0---0---0---0---0-----0---0-----0---0---0---0---0---0-----0---0------|

    Oh oohh
e|----------------------------------------0-------------------------0-------0~--|
B|--------0-------------------------------0-------------------------0-------0~--|
G|----1---1---1---1---1---1h2---2---2p1---1---1---1---1---1---1h2-------2---1~--|
D|----------------2---2-----------------------------------------------------2~--|
A|--------------------------------------------------------------------------2~--|
E|--0---0---0---0---0---0-----0---0-----0---0---0---0---0---0-----0---0-----0~--|
            
Submit corrections

↑ Back to top | Tablatures and chords for acoustic guitar and electric guitar, ukulele, drums are parodies/interpretations of the original songs. You may use it for private study, scholarship, research or language learning purposes only