Home » O » One Direction »

One Direction - Change My Mind Ukulele

Artists:  A B C D E F G H I J K L M N O P Q R S T U V W X Y Z # 

Change My Mind Ukulele

(ver. 1) Click to play this song!
One Direction
 Rating:
4.3/5 (24 votes)
                [Verse 1]
A|------------------2-----|
E|----------2-------------|
C|------2------2----------|
G|--2---------------------|
   The end of the night
 
A|--------------------2---|
E|------------2-----------|
C|-------2--------2-------|
G|--2---------------------|
   We should say goodbye
 
A|---------------2--------|
E|---------2--------------|
C|-----2-----2------------|
G|--2---------------------|
   But we carry on
 
A|-------------5----2-----|
E|----------2-------------|
C|-------2----------------|
G|--2---------------------|
  While everyone's gone
 
[Pre-Chorus]
       D               A
Never felt like this before
        Bm                G
Are we friends or are we more
         D                  A
As I'm walking towards the door
 G   A   D
I'm not sure
 
[Chorus]
     D                   Bm            G                 A
But baby if you say you want me to stay, I’ll change my mind
       D                        Bm         G              A
'Cause I don’t wanna know I’m walking away, if you’ll be mine
      D    A         Bm   G       D                  Bm
Won’t goooooo, won’t goooooo, so baby if you say you want me to stay
 G             A     G    A         D
Stay for the night, I’ll change my mind
 
[Verse 2]
A|-------------------2----|
E|----------2-------------|
C|------2-------2---------|
G|--2---------------------|
  Lean in when you laugh
 
A|------------------2-----|
E|----------2-------------|
C|------2-------2---------|
G|--2---------------------|
   We take photographs
 
A|-----------------2------|
E|-----------2------------|
C|--------2-----2---------|
G|--2---------------------|
  There’s no music on
 
 
A|--------------5--2------|
E|----------2-------------|
C|-----2------------------|
G|--2---------------------|
   But we dance along
 
[Pre-Chorus]
       D               A
Never felt like this before
        Bm                G
Are we friends or are we more
         D                  A
As I'm walking towards the door
 G   A   D
I'm not sure
 
[Chorus]
     D                   Bm            G                 A
But baby if you say you want me to stay, I’ll change my mind
       D                        Bm         G              A
'Cause I don’t wanna know I’m walking away, if you’ll be mine
      D    A         Bm   G       D                  Bm
Won’t goooooo, won’t goooooo, so baby if you say you want me to stay
 G             A     G    A         D
Stay for the night, I’ll change my mind
 
[Bridge]
 D                   A
Baby if you say you want me to stay
Bm                G
  I’ll change my mind
 
[Chorus]
     D                   Bm            G                 A
But baby if you say you want me to stay, I’ll change my mind
       D                        Bm         G              A
'Cause I don’t wanna know I’m walking away, if you’ll be mine
      D    A         Bm   G       D                  Bm
Won’t goooooo, won’t goooooo, so baby if you say you want me to stay
 G             A     G    A         D
Stay for the night, I’ll change my mind
            
Submit corrections

↑ Back to top | Tablatures and chords for acoustic guitar and electric guitar, ukulele, drums are parodies/interpretations of the original songs. You may use it for private study, scholarship, research or language learning purposes only