» » »

Olivia Newton-John - Hopelessly Devoted To You Bass

Artists:  A B C D E F G H I J K L M N O P Q R S T U V W X Y Z # 

Hopelessly Devoted To You Bass

(ver. 1) Click to play this song!
Olivia Newton-John
 Rating:
4.5/5 (8 votes)
                +++++++++++++++++++++++++++++++++++++++++++++++++
| Olivia Newton John- Hopelessly Devoted To You |
+++++++++++++++++++++++++++++++++++++++++++++++++

Tuning: EADG

Intro
1.
G|-------------------------------------------------------|
D|-------------------------------------0~-2~-3~-5~-------|
A|-5~---5-4-0~---2-4-5~---5-4-0~---2-4-------------0~----|
E|-------------------------------------------------------|

Verse
"Guess mine is not the first heart broken..."
2.
G|-------------------------------------------------------------------------|
D|----------------------------------------------2~---4-6-7~---7--------2---|
A|-0~-----0-4~-----4-5~---0-4-5~---5-4-2~---2-4-----------------7-0~-----4-|
E|-------------------------------------------------------------------------|

"Im not the first to know..."
3.
G|-------------------------------------------------------------------------|
D|----------4~-----4-5~-----5-4~--------------------------------------2~---|
A|-0~---2-4------4--------5--------4-3-2~---3-4-2~---2-5-4~---4-3-2~-------|
E|-------------------------------------------------------------------------|

"I know Im just a fool who's willing..."
4.
G|-------------------------------------------------------------------------|
D|----------------------------------------------2~---4-6-7~---7--------2---|
A|-0~---0-2-4~-----4-5~---0-4-5~---5-4-2~---2-4-----------------7-0~-----4-|
E|-------------------------------------------------------------------------|

"But baby cant you see, there's nothing else for me to do..."
5.
G|-------------------------------------------------------------------------|
D|----------4~-----4-5~-----5-4~--------------------------------------2~---|
A|-0~---2-4------4--------5--------4-3-2~---3-4-2~---2-5-4~---4-3-2~-------|
E|-------------------------------------------------------------------------|

Pre-Chorus
"To you..."
6.
G|-------------------|
D|-0~-2~-3~-5~-7~\---|
A|----------------0x-|
E|-------------------|

Chorus
"There's nowhere to hide since you pushed my love aside..."
7.
G|---------------------------------------------------------------------|
D|-----------------------------------0-3~---0---3~---3/5-3-7~-5~-0~-0~-|
A|------0-1------0-1------0-1-3~---3----------3------------------------|
E|-3~-------3~-------3~------------------------------------------------|

"To you..."
8.
G|-------------------------------------------------------------------------|
D|-------------------------------------------------------------------------|
A|------0-1------0-1------0-1-3~---3-4-5~-----5-4~-----4-3~-----3-2~---2-0-|
E|-3~-------3~-------3~---------------------5--------4--------3------------|

"Hopelessly devoted to you..."
9.
G|----------------------------------------------------|
D|-------------------0~-0-2~-2-3~-3-5~-5-7~--------7\-|
A|------0-1-3~---3-3----------------------------------|
E|-3~-------------------------------------------------|

Verse
"My head is sayin', fool forget him..."
10.
G|-------------------------------------------------------------------------|
D|----------------------------------------------2~---4-6-7~---7--------2---|
A|-0~---0-2-4~-----4-5~---0-4-5~---5-4-2~---2-4-----------------7-0~-----4-|
E|-------------------------------------------------------------------------|

"Hold on to the end, thats what I intend to do..."
11.
G|-------------------------------------------------------------------------|
D|----------4~-----4-5~-----5-4~--------------------------------------2~---|
A|-0~---2-4------4--------5--------4-3-2~---3-4-2~---2-5-4~---4-3-2~-------|
E|-------------------------------------------------------------------------|

Pre-Chorus
"To you..."
12.
G|-------------------|
D|-0~-2~-3~-5~-7~\---|
A|----------------0x-|
E|-------------------|

Chorus
"There's nowhere to hide since you pushed my love aside..."
13.
G|---------------------------------------------------------------------|
D|-----------------------------------0-3~---0---3~---3/5-3-7~-5~-0~-0~-|
A|------0-1------0-1------0-1-3~---3----------3------------------------|
E|-3~-------3~-------3~------------------------------------------------|

"To you..."
14.
G|-------------------------------------------------------------------------|
D|-------------------------------------------------------------------------|
A|------0-1------0-1------0-1-3~---3-4-5~-----5-4~-----4-3~-----3-2~---2-0-|
E|-3~-------3~-------3~---------------------5--------4--------3------------|

"Hopelessly devoted to you..."
15.
G|---------------------------------------------|
D|---------------------------------------------|
A|------0-1-3~---3-3-1~-1-3~-3-4~-4-6~-6-8~----|
E|-3~------------------------------------------|

Lyrics:

Guess mine is not the first heart broken
My eyes are not the first to cry
Im not the first to know, theres just no getting over you

I know Im just a fool who's willing
To sit around and wait for you
But baby, cant you see, there's nothing else for me to do
Im hopelessly devoted to you

But now there's nowhere to hide since you pushed my love aside
Im out of my head, hopelessly devoted to you
Hopelessly devoted to you
Hopelessly devoted to you

My head is sayin, "fool forget him"
My heart is sayin', "Dont let go"
Hold on to the end, thats what I intend to do
Im hopelessly devoted to you


+++++++++++++++++++++++++++++++++
| RaiLeff                       |
+++++++++++++++++++++++++++++++++
            
Submit corrections

↑ Back to top | Tablatures and chords for acoustic guitar and electric guitar, ukulele, drums are parodies/interpretations of the original songs. You may use it for private study, scholarship, research or language learning purposes only