» » »

O.K. Go - Oh Lately It's So Quiet Bass

Artists:  A B C D E F G H I J K L M N O P Q R S T U V W X Y Z # 

Oh Lately It's So Quiet Bass

(ver. 1) Click to play this song!
O.K. Go
 Rating:
4/5 (4 votes)
                	                  Oh Lately It's So Quiet - OK Go


Tuning: Standard

Very simple with 3 sections repeated 3 times, check song structure 
underneath. Great song by OK Go, listen to the song for the rhythm and how
 long to hold each note as that's hard distinguish from tab. Enjoy!

Intro on Guitar 

Bass Enters 0:06

G|-----------------|-------------------|
D|-----------------|-------------------|
A|7---7---7---7-7--|7---7---7---7-7-4--|
E|-----------------|-------------------|

Verse 0:11

X2

Oh   lately    it's   so...

G|-------------------|-------------------|-------------------|-------------------|
D|-------------------|6---6---6---6-6-4--|-------------------|4---4---4---4-4-7--|
A|7---7---7---7-7-4--|-------------------|4---4---4---4-4-7--|-------------------|
E|-------------------|-------------------|-------------------|-------------------|

Chorus 0:35 

Play up to star on second time then move to End Chorus

X2
                                                             *

G|-------------------|-------------------|-------------------|-------------------|
D|-------------------|-------------------|-------------------|-------------------|
A|-------------------|----------------4--|7---7---7---7-7-4--|-------------------|
E|5---5---5---5-5-6--|7---7---7---7-7----|-------------------|8---8---8---8-8-7--|


End Chorus 0:54

G|----------------|-------------------|
D|----------------|-------------------|
A|----------------|7------------------|
E|3-3-3-3-5-5-7-7-|-------------------|

Song Structure:
Bass Enters X1
Verse X2
Chorus X2
End Chorus X1
Verse X2 
Chorus X2
End Chorus X1
Verse X2
Chorus X3
End Chorus X1
Bass Enters X1
            
Submit corrections

↑ Back to top | Tablatures and chords for acoustic guitar and electric guitar, ukulele, drums are parodies/interpretations of the original songs. You may use it for private study, scholarship, research or language learning purposes only