Home » O » Oh Hellos »

Oh Hellos - Glowing Chords

Artists:  A B C D E F G H I J K L M N O P Q R S T U V W X Y Z # 

Glowing Chords

(ver. 1) Click to play this song!
Oh Hellos
[Intro]
 
e|-0-0-0-----4------4-----0------4------4-----0-----4----4-----0------5\4----|
B|-------2-------------2-----2-------------2-----2----------2-----2----------|
G|---------------------------------------------------------------------------|
D|---------------------------------------------------------------------------|
A|---------------------------------------------------------------------------|
E|---------------------------------------------------------------------------|
 
or up an octave
 
e|-12-12-12-----16----16------12--------16-----12------16-----16-----12------17\16-|
B|----------14------------14------14-------14------14------------14------14--------|
G|---------------------------------------------------------------------------------|
D|---------------------------------------------------------------------------------|
A|---------------------------------------------------------------------------------|
E|---------------------------------------------------------------------------------|
 
 
[Verse 1]
F#m  A
     In the end
            D        B
I'm feeling more and more
Bm                    E   F#m
There won't be any end
A         F#m A
No ice walls, no frozen firmament
  F#m      A
To clearly define
   D            B        Bm7               E
The corners and lines of a divine invention
D            F#m
So paper thin
A
You see right through it
 
[Chorus]
      B
But I bet
B
When you can't find an edge
B
By a map half-written
B
It could feel like the end
B       N.C.
To keep going
 
[Interlude]
e|-0-0-0-----4------4-----0------4------4-----0-----4----4-----0------5\4----|
B|-------2-------------2-----2-------------2-----2----------2-----2----------|
G|---------------------------------------------------------------------------|
D|---------------------------------------------------------------------------|
A|---------------------------------------------------------------------------|
E|---------------------------------------------------------------------------|
 
[Verse 2]
D  A
   The inkwells
  D        E
Of prophecy and cartography
F#m7
Dried up long ago
        A
They're hoarse from speaking
A                 E
Of our studied hesitation
   F#m7            Bm
To shoulder the weight
             E
Of our bad behavior
D                    F#m
Cos when Atlas shrugs
      A
Whose back is breaking?
 
[Chorus]
B5
And I know
B5                       B
How it feels to the hands
B
Heavy as the heavens
B
A weight that could fold you
B
To keep holding
 
[Interlude]x2
e|-0-0-0-----4------4-----0------4------4-----0-----4----4-----0------5\4----|
B|-------2-------------2-----2-------------2-----2----------2-----2----------|
G|---------------------------------------------------------------------------|
D|---------------------------------------------------------------------------|
A|---------------------------------------------------------------------------|
E|---------------------------------------------------------------------------|
 
A Amaj7
A    Amaj7 E
E  F#m A
A Amaj7
A  Dmaj7  Dmaj9
E  F#m A
 
[Bridge]
D  A
   Well you'll stand
         D            E
Like you stood as a babe
                          F#m           F#m7
Tugging at the houseplants, all on your own
  A
Honest and truly
A                     E
And you'll rise like land
        F#m            B
Pulled up at the sound of
                E       D
some strange commandment
D             F#m
A moon alight
A
Reflecting fully
 
[Chorus]
    B
And I guess
B
It would feel like rebirth
       E            B
Out of some kind of dying
B
To see yourself
N.C.
So glowing
 
 
[Outro]
 
A D E F#m B
A
 
            
Submit corrections

↑ Back to top | Tablatures and chords for acoustic guitar and electric guitar, ukulele, drums are parodies/interpretations of the original songs. You may use it for private study, scholarship, research or language learning purposes only