Home » O » Off With Their Heads »

Off With Their Heads - Nightlife Tabs

Artists:  A B C D E F G H I J K L M N O P Q R S T U V W X Y Z # 

Nightlife Tabs

(ver. 1) Click to play this song!
Off With Their Heads
Wooooooah


[Intro]

(little stops between the chords)
e|-----------------------------------------|
B|-----------------------------------------|
G|-----------------------------------------|
D|------------------4-4------------4-4-----|
A|-4l--4l---4--2-2--2-2--2-2--4-4--2-2-----|
E|-2l--2l---2--0-0-------0-0--2-2-------2b-|


[Main riff]

(strum these chords - riff then intro chords)
e|-----------------------------------|
B|-11--9-11-12-11--9-----------------|
G|-11-11-11-11-11-11-----------------|
D|-----------------------------------|
A|-----------------------------------|
E|-----------------------------------|


[Riff]

(let ring for verses, strum for chorus parts)
e|------------------------------------|
B|------------------------------------|
G|------------------------------------|
D|----------6-6-6-6--8-8-8-8--4-4-4-4-|
A|-4-4-4-4--4-4-4-4--6-6-6-6--2-2-2-2-|
E|-2-2-2-2----------------------------|


[Bridge guitar overlay]

e|-----------------------------------|
B|---7--------7---------6--------6---|
G|-----6--------6---------6--------6-|
D|-4--------4---------6-------6------|
A|-----------------------------------|
E|-----------------------------------|

e|-----------------------------------|
B|---7-------7--------4--------------|
G|-----8-------8--------4------------|
D|-8-------8-------4--------4--------|
A|--------------------------2--------|
E|-----------------------------------|

the other "up all night" part
e|-----------------------------------|
B|-----------------------------------|
G|-----------------------------------|
D|--------------6-4l-----------------|
A|-4--4-4--4-4--4-2l-----------------|
E|-2--2-2--2-2-----------------------|


[Final overlay]

(strum)
e|-----------------------------------|
B|-11--9-12-12-----------------------|
G|-11-11-11-11-----------------------|
D|-----------------------------------|
A|-----------------------------------|
E|-----------------------------------|


[Rhythm guitar final riff]

e|-----------------------------------|
B|-----------------------------------|
G|-----------------------------------|
D|------------------6-6-6-6-4-4-4-4--|
A|-4-4-4-4-4-4-4-4--4-4-4-4-2-2-2-2--|
E|-2-2-2-2-2-2-2-2-------------------|            
Submit corrections

↑ Back to top | Tablatures and chords for acoustic guitar and electric guitar, ukulele, drums are parodies/interpretations of the original songs. You may use it for private study, scholarship, research or language learning purposes only