» » »

Odesza - Say My Name Tabs

Artists:  A B C D E F G H I J K L M N O P Q R S T U V W X Y Z # 

Say My Name Tabs

(ver. 1) Click to play this song!
Odesza
 Rating:
3.6/5 (25 votes)

 Say My Name  lessons Tabs too difficult? Try these video lessons and learn fast
 
                Guitar Solo
e|------------------------------------------------------------------|
B|------------------------------------------------------------------|
G|------------------------------------------------------------------|
D|------------7-7---7/9~/------7---7-9-9/11-9/11-9/11-9/11\9-7h9p7--|
A|--------7-9-----9--------7h9---9----------------------------------|
E|-7-7--9-----------------------------------------------------------|


e|-----------------------------------------|
B|--------------------------------5-7-5/7--|
G|-9\6-6\4-2/6-9\6\4\1--1-2-4-6-7----------|
D|-----------------------------------------|
A|-----------------------------------------|
E|-----------------------------------------|


e|-9-12-9/7----7-7/9----12-9\7---7/9--|
B|----------10----------------10------|
G|------------------------------------|
D|------------------------------------|
A|------------------------------------|
E|------------------------------------|

     .    .    .    .    .    .    .    .
e|------------------------------------------------------9----9-12-9-12-14-12----14-12-17-12/14~----|
B|-10p7h10p7h10p7h10p7h10p7h10p7h10p7h10p7-10/12-10--12---12-----------------14--------------------|
G|-------------------------------------------------------------------------------------------------|
D|-------------------------------------------------------------------------------------------------|
A|-------------------------------------------------------------------------------------------------|
E|-------------------------------------------------------------------------------------------------|            
Submit corrections


        Say My Name  lessons Hard to play? Try these video lessons and learn fast Say My Name  lessons
        
↑ Back to top | Tablatures and chords for acoustic guitar and electric guitar, ukulele, drums are parodies/interpretations of the original songs. You may use it for private study, scholarship, research or language learning purposes only