» » »

October Fall - Here We Go From The Top Tabs

Artists:  A B C D E F G H I J K L M N O P Q R S T U V W X Y Z # 

Here We Go From The Top Tabs

(ver. 1) Click to play this song!
October Fall
 Rating:
4/5 (4 votes)

 Here We Go From The Top lessons Tabs too difficult? Try these video lessons and learn fast
 
                Intro Lead
e|---------8h10-------|
B|----8h10------------| repeat this over and over
G|--------------------|
D|--------------------|
A|--------------------|
D|--------------------|

Rhythm
e|-------------------------|
B|-------------------------|
G|---------2--4--5---------| repeat this, the first two times let the 
D|---3--0--2--4--5--2------| chords ring out, after that strum them
A|---3--0--0--2--3--2------|
D|---3--0-----------2------|
after the intro the bass plays and this is played over top
 (when he sings "beauty queen......"
e|-----------15~------------12~----|
B|-------13~-----------13~---------|
G|---14~-----------12~-------------|
D|---------------------------------|
A|---------------------------------|
D|---------------------------------|

Chorus
e|----------------------------------------|
B|----------------------------------------|
G|---4--5---------10/------12/-------14---|
D|---4--5--2--33--10/--55--12/---77--14---| repeat this twice
A|---2--3--2--33---8/--55--10/---77--12---|
D|---------2--33-------55--------77-------|
cont.
e|---------------------------------|
B|---------------------------------|
G|------------5555-4444-2222-------|
D|--3333-5555-5555-4444-2222-2222--|
A|--3333-5555-3333-2222-0000-2222--|
D|--3333-5555----------------2222--|
Lead over the cont. part
e|---13131313-12121212-101010-121212-101010-8888--|
B|------------------------------------------------|
G|------------------------------------------------|
D|------------------------------------------------|
A|------------------------------------------------|
D|------------------------------------------------|
Lead cont.
e|-13131313-1212121212-10101010-8888-7h8--5~------|
B|------------------------------------------------|
G|------------------------------------------------|
D|------------------------------------------------|
A|------------------------------------------------|
D|------------------------------------------------|

repeat verse and the chorus
after that .............
Lead
e|---------------------------------------------------------|
B|---------------------------------------------------------|
G|---------------------------------------------------------| x2
D|---------------------------------------------------------|
A|--7777777777788888555577777777777---5p0--7p0--5p0--3p0---|
D|---------------------------------------------------------|
    ...............................
Rhythm
e|------------------|
B|------------------|
G|------------------|
D|--77-77--55--33---| x 4
A|--77-77--55--33---|
D|--77-77--55--33---|
    .. ..  ..  ..
both guitars @2:07
e|------------------------------|
B|------------------------------|
G|--4--5-----4--5-----4--5------|
D|--4--5--2--4--5--2--4--5--2---|
A|--2--3--2--2--3--2--2--3--2---|
D|--------2--------2--------2---|

after that repeat the chorus and that is it 

Please rate and comment.
            
Submit corrections


        Here We Go From The Top lessons Hard to play? Try these video lessons and learn fast Here We Go From The Top lessons
        
↑ Back to top | Tablatures and chords for acoustic guitar and electric guitar, ukulele, drums are parodies/interpretations of the original songs. You may use it for private study, scholarship, research or language learning purposes only