» » »

Oceansize - The Charm Offensive Bass

Artists:  A B C D E F G H I J K L M N O P Q R S T U V W X Y Z # 

The Charm Offensive Bass

(ver. 1) Click to play this song!
Oceansize
 Rating:
4/5 (4 votes)
                
Kinda complicated tab, I've made it as clear as I can.
Sections that use variations or fills, I've put the parts
and then the order they're played in.

No real structure to the song either, so I've labelled some sections
with the lyrics that begin them.

Time Sig changes in Brackets.

Intro:

(11/8)
F:------------:
C:------------:
G:-5-5--------:  x4
C:------------:

Verse:

Part A:           Part B:

F:-------------:  F:--------------:
C:-------------:  C:--------------:
G:-5-555-555-5-:  G:-5-555-55/8-8-:
C:-------------:  C:--------------:

A A A B A B A B A A B B A A B B

Pre-Chorus:

Part A:           Part B:

F:-------------:  F:----------------:
C:-------------:  C:----------------:
G:-5-5-8\------:  G:-5-5-8\-------8-:
C:-------------:  C:----------------:

A A A B A B A B

Chorus:

Part A:           Part B:          Part C:
(11/8)            (7/8)            (6/4)
F:-------------:  F:------------:  F:-------------:
C:-------------:  C:------------:  C:-------------:
G:-------------:  G:------------:  G:-----5---5---:
C:-0-0-3-----3-:  C:-0--0--3--3-:  C:-0-0--3---3--:

A A A B A A A C A A A B A A A

Post Chorus:
(7/4)
F:-------------5--:
C:---------5----3-:
G:-----5----3-----:  X5
C:-0----3---------:

"Everyone Into Position":
(5/4)
F:----------------:-----5h75--------5-------:
C:-0--------------:---------753--5-----7----:
G:----------------:-------------------------:
C:----------------:-------------------------:

The 5h7 is very fast.

"We love to lie":

F:------------:------------:------------:----------:
C:-0-------03-:------------:------------:-------2--:
G:------------:-0-------02-:-3-------02-:-3--------: X2
C:------------:------------:------------:----------:

"Don't Think on your feet":

Part A:                   Part B:
F:----------02-22-22---: F:-----------------------:
C:-0-00-00-0-----------: C:--------3-2-------3-2--:
G:------------------02-: G:-3-33-33----3-33-3-----:
C:---------------------: C:-----------------------:

Part C:                
F:----------------------: 
C:-8-88-88---8-88-88----: 
G:---------8---------8\-: 
C:----------------------: 

A B A B C


Pre-Chorus:

Part A:           Part B:          Part C:
(11/8)            (5/4)            (7/8)
F:-------------:  F:------------:  F:------------:
C:-------------:  C:------------:  C:------------:
G:-------------:  G:------------:  G:------------:
C:-0-0-3-----3-:  C:-0-0-3------:  C:-0--0--3--3-:

A A A B A A A C

Chorus:

Part A:             Part B:            
(11/8)              (11/8)             
F:---------------:  F:-------------: 
C:---------------:  C:-------------: 
G:---------------:  G:-------------:  
C:-0-0-3/----15\-:  C:-0-0-3-----3-:  

Part C:             Part D:         Part E:   
(11/8)              (5/4)           (5/4)  
F:---------------:  F:-----------:  F:----------:
C:---------------:  C:-----------:  C:----------:
G:---------------:  G:-----------:  G:----------:
C:-0-0-15/----3\-:  C:-0-0-3-0-3-:  C:-0-0-3----:

A B C D A B C E

Post Chorus:

Rest 1 bar of 7/4

(7/4)
F:-------------5--:
C:---------5----3-:
G:-----5----3-----:  X6
C:-0----3---------:

"Everyone Into Position":
(5/4)
F:-----5h75--------5-------:
C:-0-------753--5-----7----:
G:-------------------------:  x2
C:-------------------------:
  
  (5/4)        (4/4)
F:-----5h75----:-7--7---7-:
C:-0-------750-:---0--0---:
G:-------------:----------:  x2
C:-------------:----------:

Verse:

F:------------:------------:------------:----------:
C:-0-------03-:------------:------------:-------2--:
G:------------:-0-------02-:-3-------02-:-3--------: X2
C:------------:------------:------------:----------:

"Don't Think on your feet":

Part A:                   Part B:
F:----------02-22-22---: F:-----------------------:
C:-0-00-00-0-----------: C:--------3-2-------3-2--:
G:------------------02-: G:-3-33-33----3-33-3-----:
C:---------------------: C:-----------------------:

A B A B 

"Rooting For You"
          
F:------------:------------:------------:------------:
C:-8-88-88----:-8-88-88----:-7-77-77----:-5-55-55-5--: 
G:---------8--:--------8\--:---------8--:------------:
C:------------:------------:------------:------------:

F:------------:------------:------------:
C:-5-55-0575--:------------:------------:
G:------------:-8-88-88-8--:-8-88-88-8\-:
C:------------:------------:------------:

"They've sold us out again"

F:------------:------------:------------:------------:
C:------------:------------:-------3-2--:-------3-2--:
G:-------0-3--:-------0----:-3-33-3-----:-3-33-3-----:
C:-0-505------:-0-505------:------------:------------:

F:------------:------------:------------:------------:
C:-8-88-88----:-7-77-77----:-5-55-55-5--:-5-55-55-5--:
G:---------8--:---------8--:------------:------------:
C:------------:------------:------------:------------:

"They say we're all the same"

F:------------:------------:------------:------------:
C:------------:------------:-------3-2--:-------3-2--:
G:-------0-3--:-------0----:-3-33-3-----:-3-33-3-----:
C:-0-505------:-0-505------:------------:------------:

F:------------:------------:------------:
C:-8-88-88----:-7-77-77----:-5-55-55-5--:
G:---------8--:---------8--:------------:
C:------------:------------:------------:

F:------------:------------:------------:
C:-5-55-0575--:------------:------------:
G:------------:-8-88-88-8--:-8-88-------:
C:------------:------------:------03-3--:

Outro:

F:----------------------:
C:----------------------:
G:-----530-------3--0---: x8
C:-0------53--5---------:

Peace Out
            
Submit corrections

↑ Back to top | Tablatures and chords for acoustic guitar and electric guitar, ukulele, drums are parodies/interpretations of the original songs. You may use it for private study, scholarship, research or language learning purposes only