» » »

O.A.R. - To Zion Goes I Tabs

Artists:  A B C D E F G H I J K L M N O P Q R S T U V W X Y Z # 

To Zion Goes I Tabs

(ver. 2) Click to play this song!
O.A.R.
 Rating:
4/5 (4 votes)
                -----------------------------------------------------------------
To Zion Goes I - O.A.R
-----------------------------------------------------------------

Tuning: Standard

This is a very easy song and the riff is pretty much play over and over. 
The only change during the song is to the bridge. You should be able
to figure out the strumming patern for the bridge.During the riff when 
Marc is singing you can just go to the E, B, A, B progression without
the little addins. Also, to add to the song, instead of playing the
regular E chord I like playing the power chord of E one step up. Enjoy

e|----------------5-5-5---------------|
B|----------------5-5-5---------------|
G|-1-1-1--4-4h6p4-6-6-6--------4h6p4--|  Riff
D|-2-2-2--4-4-----7-7-7--4h5h6--------|
A|-2-2-2----------7-7-7---------------|
E|----------------5-5-5---------------|


    C#  B   F#  A
e|-------------------|
B|-------------------|
G|--6---4------------| Bridge
D|--6---4---4---7----|
A|--4---2---4---7----|
E|----------2---5----|





| h  hammer-on
| p  pull-off
            
Submit corrections

↑ Back to top | Tablatures and chords for acoustic guitar and electric guitar, ukulele, drums are parodies/interpretations of the original songs. You may use it for private study, scholarship, research or language learning purposes only