Home » O » O.A.R. »

O.A.R. - Peace Tabs

Artists:  A B C D E F G H I J K L M N O P Q R S T U V W X Y Z # 

Peace Tabs

(ver. 2) Click to play this song!
O.A.R.
 Rating:
4.3/5 (26 votes)
                [Intro]
 
  Dsus2                             Dsus2/C#
e|----------------|-0--------------|-----------------|--0-----------------|
B|-----3----------|------3---------|-----3-----------|-------3------------|
G|----------2-----|----------2-----|----------2------|-----------2--------|
D|-------------0--|--------------0-|---------------0-|----------------0---|
A|----------------|----------------|--4--4--4---4----|--4--4---4---4------|
E|--0--0--0--0----|-0--0---0---0---|-----------------|--------------------|
 
 
  Dsus2/B                           Asus2
e|----------------|-0--------------|--------------0--|--------------------|
B|-----3----------|------3---------|---------0-------|--------------------|
G|----------2-----|----------2-----|------2---- 2----|----0---------------|
D|--------------0-|--------------0-|-0h2-------------|----------4b--2-----|
A|0h2--2--2---2---|-2--2---2---2---|-0---------------|-0-----0------------|
E|----------------|----------------|-----------------|--------------------|
 
[Verse 1]
 
  Dsus2                             Dsus2/C#
e|----------------|-0--------------|-----------------|--0-----------------|
B|-----3----------|------3---------|-----3-----------|-------3------------|
G|----------2-----|----------2-----|----------2------|-----------2--------|
D|-------------0--|--------------0-|---------------0-|----------------0---|
A|----------------|----------------|--4--4--4---4----|--4--4---4---4------|
E|--0--0--0--0----|-0--0---0---0---|-----------------|--------------------|
 
 
  Dsus2/B                           Asus2
e|----------------|-0--------------|--------------0--|--------------------|
B|-----3----------|------3---------|---------0-------|--------------------|
G|----------2-----|----------2-----|------2-----2----|----0---------------|
D|--------------0-|--------------0-|-0h2-------------|----------4b--2-----|   x 2
A|0h2--2--2---2---|-2--2---2---2---|-0---------------|-0-----0------------|
E|----------------|----------------|-----------------|--------------------|
 
 
[Pre Chorus]
 
  G                                 Asus2
e|----------------|----------------|-----------------|--0-----------------|
B|-----0----------|--0-------------|-----0-----------|-------0------------|
G|----------0-----|-------0------0-|----------2------|-----------2--------|
D|--------------0-|-----------0----|---------------2-|----------------2---|
A|----------------|----------------|--0--0--0---0----|--0--0---0---0------|
E|--5--5--5---5---|--5--5---5---5--|-----------------|--------------------|
 
 
  G                                 Asus2             A7 (one strum)
e|----------------|----------------|--------------0--|--0-----------------|
B|-----0----------|--0-------------|---------0-------|--2-----------------|
G|----------0-----|-------0------0-|------2-----2----|--0-----------------|
D|--------------0-|-----------0----|-0h2-------------|--2-----------------|
A|----------------|----------------|-0---------------|--0-----------------|
E|--5--5--5---5---|--5--5---5---5--|-----------------|--X-----------------|
 
 
 
[Chorus] Strum pattern: D D DUDU
 
  Bm               G                D                 A7
e|-2--2--2-2-2-2--|-3--3--3-3-3-3--|--2--2--2-2-2-2--|-0--0--0-0-0-0------|
B|-3--3--3-3-3-3--|-0--0--0-0-0-0--|--3--3--3-3-3-3--|-2--2--2-2-2-2------|
G|-4--4--4-4-4-4--|-0--0--0-0-0-0--|--2--2--2-2-2-2--|-0--0--0-0-0-0------|
D|-4--4--4-4-4-4--|-0--0--0-0-0-0--|--0--0--0-0-0-0--|-2--2--2-2-2-2------|   x 4
A|-2--2--2-2-2-2--|-x--x--x-x-x-x--|--0--0--0-0-0-0--|-0--0--0-0-0-0------|
E|-x--x--x-x-x-x--|-5--5--5-5-5-5--|--0--0--0-0-0-0--|-x--x--x-x-x-x------|
 
 
[Verse 2]
 
  Dsus2                             Dsus2/C#
e|----------------|-0--------------|-----------------|--0-----------------|
B|-----3----------|------3---------|-----3-----------|-------3------------|
G|----------2-----|----------2-----|----------2------|-----------2--------|
D|-------------0--|--------------0-|---------------0-|----------------0---|
A|----------------|----------------|--4--4--4---4----|--4--4---4---4------|
E|--0--0--0--0----|-0--0---0---0---|-----------------|--------------------|
 
 
  Dsus2/B                           Asus2
e|----------------|-0--------------|--------------0--|--------------------|
B|-----3----------|------3---------|---------0-------|--------------------|
G|----------2-----|----------2-----|------2---- 2----|----0---------------|
D|--------------0-|--------------0-|-0h2-------------|----------4b--2-----|   x 2
A|0h2--2--2---2---|-2--2---2---2---|-0---------------|-0-----0------------|
E|----------------|----------------|-----------------|--------------------|
 
 
[Pre Chorus]
 
  G                                 Asus2
e|----------------|----------------|-----------------|--0-----------------|
B|-----0----------|--0-------------|-----0-----------|-------0------------|
G|----------0-----|-------0------0-|----------2------|-----------2--------|
D|--------------0-|-----------0----|---------------2-|----------------2---|
A|----------------|----------------|--0--0--0---0----|--0--0---0---0------|
E|--5--5--5---5---|--5--5---5---5--|-----------------|--------------------|
 
 
  G                                 Asus2             A7 (one strum)
e|----------------|----------------|--------------0--|--0-----------------|
B|-----0----------|--0-------------|---------0-------|--2-----------------|
G|----------0-----|-------0------0-|------2-----2----|--0-----------------|
D|--------------0-|-----------0----|-0h2-------------|--2-----------------|
A|----------------|----------------|-0---------------|--0-----------------|
E|--5--5--5---5---|--5--5---5---5--|-----------------|--X-----------------|
 
 
[Chorus] Strum pattern: D D DUDU
 
  Bm               G                D                 A7
e|-2--2--2-2-2-2--|-3--3--3-3-3-3--|--2--2--2-2-2-2--|-0--0--0-0-0-0------|
B|-3--3--3-3-3-3--|-0--0--0-0-0-0--|--3--3--3-3-3-3--|-2--2--2-2-2-2------|
G|-4--4--4-4-4-4--|-0--0--0-0-0-0--|--2--2--2-2-2-2--|-0--0--0-0-0-0------|
D|-4--4--4-4-4-4--|-0--0--0-0-0-0--|--0--0--0-0-0-0--|-2--2--2-2-2-2------|   x 5
A|-2--2--2-2-2-2--|-x--x--x-x-x-x--|--0--0--0-0-0-0--|-0--0--0-0-0-0------|
E|-x--x--x-x-x-x--|-5--5--5-5-5-5--|--0--0--0-0-0-0--|-x--x--x-x-x-x------|
 
 
[Pre Chorus]
  G                                 Asus2
e|----------------|----------------|-----------------|--0-----------------|
B|-----0----------|--0-------------|-----0-----------|-------0------------|
G|----------0-----|-------0------0-|----------2------|-----------2--------|
D|--------------0-|-----------0----|---------------2-|----------------2---|
A|----------------|----------------|--0--0--0---0----|--0--0---0---0------|
E|--5--5--5---5---|--5--5---5---5--|-----------------|--------------------|
 
 
  G                                 Asus2             A7 (one strum)
e|----------------|----------------|--------------0--|--0-----------------|
B|-----0----------|--0-------------|---------0-------|--2-----------------|
G|----------0-----|-------0------0-|------2-----2----|--0-----------------|
D|--------------0-|-----------0----|-0h2-------------|--2-----------------|
A|----------------|----------------|-0---------------|--0-----------------|
E|--5--5--5---5---|--5--5---5---5--|-----------------|--X-----------------|
 
[Chorus] Strum pattern: D D DUDU
 
  Bm               G                D                 A7
e|-2--2--2-2-2-2--|-3--3--3-3-3-3--|--2--2--2-2-2-2--|-0--0--0-0-0-0------|
B|-3--3--3-3-3-3--|-0--0--0-0-0-0--|--3--3--3-3-3-3--|-2--2--2-2-2-2------|
G|-4--4--4-4-4-4--|-0--0--0-0-0-0--|--2--2--2-2-2-2--|-0--0--0-0-0-0------|
D|-4--4--4-4-4-4--|-0--0--0-0-0-0--|--0--0--0-0-0-0--|-2--2--2-2-2-2------|   x 10
A|-2--2--2-2-2-2--|-x--x--x-x-x-x--|--0--0--0-0-0-0--|-0--0--0-0-0-0------|
E|-x--x--x-x-x-x--|-5--5--5-5-5-5--|--0--0--0-0-0-0--|-x--x--x-x-x-x------|
            
Submit corrections

↑ Back to top | Tablatures and chords for acoustic guitar and electric guitar, ukulele, drums are parodies/interpretations of the original songs. You may use it for private study, scholarship, research or language learning purposes only