» » »

O.A.G - 60s Tv Chords

Artists:  A B C D E F G H I J K L M N O P Q R S T U V W X Y Z # 

60s Tv Chords

(ver. 2) Click to play this song!
O.A.G
 Rating:
4/5 (4 votes)


 60s Tv lessons Tabs too difficult? Try these video lessons and learn fast
 
                Intro : 
A* E2 A* E2 F#5 C#5 D5~ 
e--7--7----7--7--|--7--7----7--7--|--------------------- 
B-10-10----7--7--|-10-10----7--7--|--------------------- 
G--9--9----9--9--|--9--9----9--9--|-11-11---6--6---7---- 
D--7--7----9--9--|--7--7----9--9--|-11-11---6--6---7---- 
A--7--7----7--7--|--7--7----7--7--|--9--9---4--4---5---- 
E----------------|----------------|--------------------- 
60's t.v 

A* E2 A* E2 F#5 C#5 D5(many times) 
e--7--7----7--7--|--7--7----7--7--|-------------------------------- 
B-10-10----7--7--|-10-10----7--7--|-------------------------------- 
G--9--9----9--9--|--9--9----9--9--|-11-11---6--6---7-7-7-7-7-7-7--- 
D--7--7----9--9--|--7--7----9--9--|-11-11---6--6---7-7-7-7-7-7-7--- 
A--7--7----7--7--|--7--7----7--7--|--9--9---4--4---5-5-5-5-5-5-5--- 
E----------------|----------------|-------------------------------- 
te..le..vi..sionn... 

Verse1 : 
A5 E5 F#5 C#5 
e------------------------ 
B------------------------ 
G--------9----11-----6--- 
D--7-----9----11-----6--- 
A--7-----7-----9-----4--- 
E--5--------------------- 
Watching on and on again 
Where I can see the color still black and white (a-ai) 

A5 E5 F#5 C#5 
e------------------------ 
B------------------------ 
G--------9----11-----7--- 
D--7-----9----11-----7--- 
A--7-----7-----9-----5--- 
E--5--------------------- 
I'm drinking while I'm watching the television (television) 

Drinking on and on again 
Where I wanted to be alone 
While I'm drinking, while I'm watching 
te..(60's t.v) 
le..(60's t.v) 
vi..(60's t.v) 
sion...(60's t.v) 

Chorus : 
A5 E5 A5 E5 F#5 C#5 D5~ 
e----------------|----------------|--------------------- 
B----------------|----------------|--------------------- 
G----------9--9--|----------9--9--|-11-11---6--6---7---- 
D--7--7----9--9--|--7--7----9--9--|-11-11---6--6---7---- 
A--7--7----7--7--|--7--7----7--7--|--9--9---4--4---5---- 
E--5--5----------|--5--5----------|--------------------- 
I'm watching..(i'm watching) 
I'm watching..(i'm watching) 
60's T.V 

A5 E5 A5 E5 F#5 C#5 D5(many times) 
e----------------|----------------|-------------------------------- 
B----------------|----------------|-------------------------------- 
G----------9--9--|----------9--9--|-11-11---6--6---7-7-7-7-7-7-7--- 
D--7--7----9--9--|--7--7----9--9--|-11-11---6--6---7-7-7-7-7-7-7--- 
A--7--7----7--7--|--7--7----7--7--|--9--9---4--4---5-5-5-5-5-5-5--- 
E--5--5----------|--5--5----------|-------------------------------- 
I'm watching..(i'm watching) 
I'm watching..(i'm watching) 
60's te..le..vi..sion... 

Verse2 : (same as before) 
Watching on and on again 
Where I can see the color still black and white (a-ai) 
I'm drinking while I'm wathcing the television 
Drinking on and on again 
Where I wanted to be alone (60's t.v) 
While I'm drinking, while I'm watching 
te..(60's t.v) 
le..(60's t.v) 
vi..(60's t.v) 
sion...(60's t.v) 

(chorus) 

solo : (with verse chords as background) 

e|-----------------------------------------------------------------| 
B|-----------------7-----------7-8---------------------------------| 
G|---7---7-7---7-9---9-7---7-9-----9-7-----------------------------| 
D|-----------9-------------------------10-9--7-7~------------------| 
A|-----------------------------------------------------------------| 
E|-----------------------------------------------------------------| 

e|-----------------------------------------------------------------| 
B|-----------------7-----------7-8---8-10--10-10/12-10--8----------| 
G|---7---7-7---7-9---9-7---7-9-----9------------------------9~-----| 
D|-----------9-----------------------------------------------------| 
A|-----------------------------------------------------------------| 
E|-----------------------------------------------------------------| 

e|-------------------------------------------------------------------------------| 
B|-----8-10--10/12--12b--12b-12--10~---12-10-12-10-8---8--10-10-10/12--10-8------| 
G|---9-----------------------------------------------9----------------------9----| 
D|-------------------------------------------------------------------------------| 
A|-------------------------------------------------------------------------------| 
E|-------------------------------------------------------------------------------| 

e|---------------------------------------------------------------------| 
B|-----8-10--10/12--12b--12b-12--10~---12-10-12-10-8---8--10-10/12-----| 
G|---9-----------------------------------------------9-----------------| 
D|---------------------------------------------------------------------| 
A|---------------------------------------------------------------------| 
E|---------------------------------------------------------------------| 

e|-------------------------------------------| 
B|---10--8--8--8--8--10-8--8--8---10--8------| 
G|----------9--9--9--------9--9--------------| 
D|---------10-10-10-------10-10--------------| 
A|-------------------------------------------| 
E|-------------------------------------------| 

te..(i'm watching) 
le..(i'm watching) 
vi..(i'm watching) 
sion..(i'm watching) 

Chorus : 
I'm watching..(i'm watching) 
I'm watching..(i'm watching) 
60's T.V [3 times] 
I'm watching..(i'm watching) 
I'm watching..(i'm watching) 
60's te..le..vi..sion... 

I'm watching..I'm watching.. 
60's T.V, blacken T.V 
Glowing color 
So this is the end (the end) 
this is called 60's T.V...syyy...
            
Submit corrections



        60s Tv lessons Hard to play? Try these video lessons and learn fast 60s Tv lessons
        
↑ Back to top | Tablatures and chords for acoustic guitar and electric guitar, ukulele, drums are parodies/interpretations of the original songs. You may use it for private study, scholarship, research or language learning purposes only