» » »

Nujabes - Filo Tabs

Artists:  A B C D E F G H I J K L M N O P Q R S T U V W X Y Z # 

Filo Tabs

(ver. 2) Click to play this song!
Nujabes
 Rating:
3.8/5 (22 votes)

 Filo lessons Tabs too difficult? Try these video lessons and learn fast
 
                Tuning: Standard

E[-7------5------7------5-------|
B[----5-5--5-5-5----5-5--5-5-5--|
G[----5-5--5-5-5----5-5--5-5-5--| x2 (INTRO)
D[------------------------------|
A[------------------------------|
E[------------------------------|


-8------00-0-0--5-8-7-5--------------------------------00-0-0--|
----5-5-00-0-0-6--------8-6-5-6-8-5-55-x66-x10-10-10s--00-0-0--|
----5-5-55-5-5-5------------5-----5-55-x55-x9--9--9s---55-5-5--| x4
--------77-7-7-7--------------------77-x77-x10-10-10s-777-7-7--|
---------------------------------------------------------------|
---------------------------------------------------------------|


----5--------------------------------------------------------------------|
--6---8-7-5--------5----5----5----5----5----5----5----8-5--10-5--12-5-8--|
-5----------7-5-5h7--5-5-55-5--5---5--5--5---5--5--5--5-5--9--5--13-5-8--|
-7-------------------4-4-44-4----4--4-4----4--4-4-----5-4--10-4--12-4-7--|
-------------------------------------------------------------------------|
-------------------------------------------------------------------------|

*(INTRO)

-8------00-0-0--5-8-7-5--------------------------------00-0-0------5------------|
----5-5-00-0-0-6--------8-6-5-6-8-5-55-x66-x10-10-10s--00-0-0----6---8-7-5------|
----5-5-55-5-5-5------------5-----5-55-x55-x9--9--9s---55-5-5---5----------7-5--|
--------77-7-7-7--------------------77-x77-x10-10-10s-777-7-7---7---------------|
--------------------------------------------------------------------------------|
--------------------------------------------------------------------------------|

-8-8--8-00--00--5-8-7-5--------------------------------00-0-0------5------------|
--------00--00-6--------8-6-5-6-8-5-55-x66-x10-10-10s--00-0-0----6---8-7-5------|
--------55--55-5------------5-----5-55-x55-x9--9--9s---55-5-5---5----------7-5--|
--------77--77-7--------------------77-x77-x10-10-10s-777-7-7---7---------------|
--------------------------------------------------------------------------------|
--------------------------------------------------------------------------------|

-8-8-8--00-0-0--5-8-7-5--------------------------------00-0-0------5------------|
--------00-0-0-6--------8-6-5-6-8-5-55-x66-x10-10-10s--00-0-0----6---8-7-5------|
--------55-5-5-5------------5-----5-55-x55-x9--9--9s---55-5-5---5----------7-5--|
--------77-7-7-7--------------------77-x77-x10-10-10s-777-7-7---7---------------|
--------------------------------------------------------------------------------|
--------------------------------------------------------------------------------|

-8------00-0-0--5-8-7----------------------------------00-0-0------5------------|
----5-5-00-0-0-6------------5-6-8-5-55-x66-x10-10-10s--00-0-0----6---8-7-5------|
----5-5-55-5-5-5------------5-----5-55-x55-x9--9--9s---55-5-5---5----------7-5--|
--------77-7-7-7--------------------77-x77-x10-10-10s-777-7-7---7---------------|
--------------------------------------------------------------------------------|
--------------------------------------------------------------------------------|

---------------------------------------------------------|
---5----5----5----5----5----5----5----8-5--10-5--12-5-8--|
5h7--5-5-55-5--5---5--5--5---5--5--5--5-5--9--5--13-5-8--|
-----4-4-44-4----4--4-4----4--4-4-----5-4--10-4--12-4-7--|
---------------------------------------------------------|
---------------------------------------------------------|

Return to * and play from there one more time and thats all
            
Submit corrections


        Filo lessons Hard to play? Try these video lessons and learn fast Filo lessons
        
↑ Back to top | Tablatures and chords for acoustic guitar and electric guitar, ukulele, drums are parodies/interpretations of the original songs. You may use it for private study, scholarship, research or language learning purposes only