Home » N » No Vacancy »

No Vacancy - Fight Bass

Artists:  A B C D E F G H I J K L M N O P Q R S T U V W X Y Z # 

Fight Bass

(ver. 1) Click to play this song!
No Vacancy

This is my first tab ever, so don’t be mad if I’ve done something wrong.
And please rate this one, ‘cos it’s good for my self-esteem!

INTRO:
|-----------------------------------|
|-----------------------------------|
|-3/5-5-5-5-5-5-5-5-5-5-5-5-5-5-5-5-| 4x
|-----------------------------------|

MAIN RIFF (for that you can play the intro a few times, but you can also play this):
|-------5---------------------5-----------|
|-7-5-7---7-5-7---7-----7-5-7---7-5-7-----|
|---------------5---5-----------------5-5-|
|-----------------------------------------|

RIFF AFTER MAIN RIFF(for that you can play the intro a few times, but you can also play this):
|-------5-----------------------------|
|-7-5-7---7-5-7---7---7---7---7-----7-|
|---------------5---5---5---5---5---5-|
|-------------------------------------|

VERSE RIFF (2x):
|---------------------------|
|---------------------------|
|---/5*---------------\0*---|
|---------/1*---/3*---------|
( * means 16 times)

CHORUS RIFF:
|------------------------------------------------------|
|------------------------------------------------------|
|-5--5-7-8-7-5---3--1---0-1-0---5--5-7-8-7-5---3*-1*---|
|------------------------------------------------------|
( * means 8 times)

BRIDGE 1:
|-----------|
|-----------|
|-----------|
|-3*----\1*-|
( * means 16 times)

MAIN RIFF (for that you can play the intro a few times, but you can also play this):
|-------5---------------------5-----------|
|-7-5-7---7-5-7---7-----7-5-7---7-5-7-----|
|---------------5---5-----------------5-5-|
|-----------------------------------------|

BRIDGE 2:
|-----------------------------------|
|-----------------------------------|
|-3/5-5-5-5-5-5-5-5-5-5-5-5-5-5-5-5-| 2x
|-----------------------------------|

VERSE RIFF (2x):
|---------------------------|
|---------------------------|
|---/5*---------------\0*---|
|---------/1*---/3*---------|
( * means 16 times)

CHORUS RIFF:
|------------------------------------------------------|
|------------------------------------------------------|
|-5--5-7-8-7-5---3--1---0-1-0---5--5-7-8-7-5---3*-1*---|
|------------------------------------------------------|
( * means 8 times)

BRIDGE 1:
|-----------|
|-----------|
|-----------|
|-3*----\1*-|
( * means 16 times)

MAIN RIFF (for that you can play the intro a few times, but you can also play this):
|-------5---------------------5-----------|
|-7-5-7---7-5-7---7-----7-5-7---7-5-7-----|
|---------------5---5-----------------5-5-|
|-----------------------------------------|

RIFF UNDER SOLO:
|-----------------------------------|
|-----------------------------------|
|-3/5-5-5-5-5-5-5-5-5-5-5-5-5-5-5-5-| 8x
|-----------------------------------|

BRIDGE 1:
|-----------|
|-----------|
|-----------|
|-3*----\1*-|
( * means 16 times)

MAIN RIFF (for that you can play the intro a few times, but you can also play this):
|-------5---------------------5-----------|
|-7-5-7---7-5-7---7-----7-5-7---7-5-7-----|
|---------------5---5-----------------5-5-|
|-----------------------------------------|

BRIDGE 2:
|-----------------------------------|
|-----------------------------------|
|-3/5-5-5-5-5-5-5-5-5-5-5-5-5-5-5-5-| 2x
|-----------------------------------|

END:
|-------5----------|
|-7-5-7---7-5-7----|
|---------------5/-|
|------------------|

HASTA LA VISTA BABY!
            
Submit corrections

↑ Back to top | Tablatures and chords for acoustic guitar and electric guitar, ukulele, drums are parodies/interpretations of the original songs. You may use it for private study, scholarship, research or language learning purposes only