» » »

Nothing But Thieves - Im Not Made By Design Tabs

Artists:  A B C D E F G H I J K L M N O P Q R S T U V W X Y Z # 

Im Not Made By Design Tabs

(ver. 2) Click to play this song!
Nothing But Thieves
 Rating:
4.3/5 (27 votes)

 Im Not Made By Design lessons Tabs too difficult? Try these video lessons and learn fast
 
                [0:00] [Intro] - Guitar 1

     PM > > > > > > > > > > > > > > > > > > > > > PM  
Eb|--------------------------------------------------|
Bb|--------------------------------------------------|
Gb|--------------------------------------------------| Repeat
Db|--------9-----9--9-----9-----9-----9-----9-----9--| x4
Ab|--------7-----7--7-----7-----7-----7-----7-----7--|
Eb|--0--0-----0--------0-----0-----0-----0-----0-----|


     PM > > > > > > > > > > > > > > > > > > > > > PM  
Eb|--------------------------------------------------|
Bb|--------------------------------------------------|
Gb|--------------------------------------------------|
Db|--------10----10-10----10----10----10----10----10-|
Ab|--------10----10-10----10----10----10----10----10-|
Eb|--8--8-----8--------8-----8-----8-----8-----8-----|


     PM > > > > > > > > > > > > > > > > > > > > > PM  
Eb|--------------------------------------------------|
Bb|--------------------------------------------------|
Gb|--------------------------------------------------|
Db|--------7-----7--7-----7-----7-----7-----7-----7--|
Ab|--------7-----7--7-----7-----7-----7-----7-----7--|
Eb|--5--5-----5--------5-----5-----5-----5-----5-----|


     PM > > > > > > > > > > > > > > > > > > > > > PM  
Eb|--------------------------------------------------|
Bb|--------------------------------------------------|
Gb|--------------------------------------------------| Repeat
Db|--------9-----9--9-----9-----9-----9-----9-----9--| x2
Ab|--------7-----7--7-----7-----7-----7-----7-----7--|
Eb|--0--0-----0--------0-----0-----0-----0-----0-----|

   --  Repeat [Intro - Guitar 1] x2


[0:27] [Intro] - Guitar 2

Eb|--------------------------------------------------|
Bb|--------0-----------0-----------0-----------------|
Gb|--------------------------------------------------| Repeat
Db|--------------------------------------------------| x2
Ab|--------------------------------------------------|
Eb|--2-----------3-----------5-----------0~----------|



[1:00] [Chorus] - Guitar 1

Eb|--------------------------------------------------||--------------------------------------------------|
Bb|--------------------------------------------------||--------------------------------------------------|
Gb|--------------0-----------2-----------0~----------||--------------0-----------2~----------------------|
Db|--4-----------0-----------2-----------2~----------||--4-----------0-----------2~----------------------|
Ab|--4-----------5-----------0-----------2~----------||--4-----------5-----------0~----------------------|
Eb|--2-----------3-----------x-----------0~----------||--2-----------3-----------x-----------------------|

   --  Repeat [Chorus - Guitar 1] x2


[1:00] [Chorus] - Guitar 2


Eb|--------------------------------------------------||--------------------------------------------------|
Bb|--7-----------8----------10-----------5~----------||--7-----------8----------10~----------------------|
Gb|--6-----------7-----------9-----------4~----------||--6-----------7-----------9~----------------------|
Db|--4-----------5-----------7-----------2~----------||--4-----------5-----------7~----------------------|
Ab|--------------------------------------------------||--------------------------------------------------|
Eb|--------------------------------------------------||--------------------------------------------------|

   --  Repeat [Chorus - Guitar 2] x2


[1:22] [Bridge] - Guitar 1

                                                              PM > > > > > > > > > > > > > > > > > > PM  
Eb|--------------------------------------------------|--------------------------------------------------|
Bb|-----------0-----------0-----------0--------------|--------------------------------------------------|
Gb|--------------------------------------------------|--------------------------------------------------| Rep.
Db|--------------------------------------------------|--------------------------------------------------| x2
Ab|--------------------------------------------------|--------7--7--7--7--7--7--7--7--7--7--7--7--7--7--|
Eb|--2-----------3-----------5-----------0~----------|--------------------------------------------------|


[1:32] [Verse] - Guitar 1

     PM PM    PM    PM PM    PM    PM PM    PM
Eb|--------------------------------------------------|
Bb|--------------------------------------------------|
Gb|--------------------------------------------------| Repeat
Db|--------9-----9--------9-----9--------9-----9--9--| x4
Ab|--------7-----7--------7-----7--------7-----7--7--|
Eb|--0--0-----0-----0--0-----0-----0--0-----0--------|


     PM PM    PM    PM PM    PM    PM PM    PM
Eb|--------------------------------------------------|
Bb|--------------------------------------------------|
Gb|--------------------------------------------------|
Db|--------10----10-------10----10-------10----10-10-|
Ab|--------10----10-------10----10-------10----10-10-|
Eb|--8--8-----8-----8--8-----8-----8--8-----8--------|


     PM PM    PM    PM PM    PM    PM PM    PM
Eb|--------------------------------------------------|
Bb|--------------------------------------------------|
Gb|--------------------------------------------------|
Db|--------7-----7--------7-----7--------7-----7--7--|
Ab|--------7-----7--------7-----7--------7-----7--7--|
Eb|--5--5-----5-----5--5-----5-----5--5-----5--------|


     PM PM    PM    PM PM    PM    PM PM    PM
Eb|--------------------------------------------------|--------------------------------------------------|
Bb|--------------------------------------------------|--------------------------------------------------|
Gb|--------------------------------------------------|--------------------------------------------------|
Db|--------9-----9--------9-----9--------9-----9--9--|--------9-----9--------9-----9--------9\----------|
Ab|--------7-----7--------7-----7--------7-----7--7--|--------7-----7--------7-----7--------7\----------|
Eb|--0--0-----0-----0--0-----0-----0--0-----0--------|--0--0-----0-----0--0-----0-----0--0--------------|


[1:32] [Verse] - Guitar 2

Eb|--------------------------------------------------|
Bb|--8--8--8-----8--8-----8-----8-----8--8--8--8--8--|
Gb|--9--9--9-----9--9-----9-----9-----9--9--9--9--9--| Repeat
Db|--9--9--9-----9--9-----9-----9-----9--9--9--9--9--| x2
Ab|--------------------------------------------------|
Eb|--------------------------------------------------|


Eb|--------------------------------------------------|
Bb|--10-10-10----10-10----10----10----10-10-10-10-10-|
Gb|--9--9--9-----9--9-----9-----9-----9--9--9--9--9--| Repeat
Db|--9--9--9-----9--9-----9-----9-----9--9--9--9--9--| x2
Ab|--------------------------------------------------|
Eb|--------------------------------------------------|


Eb|--------------------------------------------------|
Bb|--7--7--7-----7--7-----7-----7-----7--7--7--7--7--|
Gb|--9--9--9-----9--9-----9-----9-----9--9--9--9--9--| Repeat
Db|--9--9--9-----9--9-----9-----9-----9--9--9--9--9--| x2
Ab|--------------------------------------------------|
Eb|--------------------------------------------------|


Eb|--------------------------------------------------|--------------------------------------------------|
Bb|--10-10-10----10-10----10----10----10-10-10-10-10-|--10-10-10----10-10----10----10----10-10\---------|
Gb|--9--9--9-----9--9-----9-----9-----9--9--9--9--9--|--9--9--9-----9--9-----9-----9-----9--9\----------|
Db|--9--9--9-----9--9-----9-----9-----9--9--9--9--9--|--9--9--9-----9--9-----9-----9-----9--9\----------|
Ab|--------------------------------------------------|--------------------------------------------------|
Eb|--------------------------------------------------|--------------------------------------------------|


[1:54] [Chorus] - Guitar 1

Eb|--------------------------------------------------||--------------------------------------------------|
Bb|--------------------------------------------------||--------------------------------------------------|
Gb|--------------0-----------2-----------0~----------||--------------0-----------2~----------------------|
Db|--4-----------0-----------2-----------2~----------||--4-----------0-----------2~----------------------|
Ab|--4-----------5-----------0-----------2~----------||--4-----------5-----------0~----------------------|
Eb|--2-----------3-----------x-----------0~----------||--2-----------3-----------x-----------------------|

   --  Repeat [Chorus - Guitar 1] x2


[1:54] [Chorus] - Guitar 2

Eb|--------------------------------------------------||--------------------------------------------------|
Bb|--7-----------8----------10-----------5~----------||--7-----------8----------10~----------------------|
Gb|--6-----------7-----------9-----------4~----------||--6-----------7-----------9~----------------------|
Db|--4-----------5-----------7-----------2~----------||--4-----------5-----------7~----------------------|
Ab|--------------------------------------------------||--------------------------------------------------|
Eb|--------------------------------------------------||--------------------------------------------------|

   --  Repeat [Chorus - Guitar 2] x2


[2:16] [Bridge] - Guitar 1

Eb|--------------------------------------------------|
Bb|--------------------------------------------------|
Gb|--------------------------------------------------|
Db|--------------------------------------------------|
Ab|--------------------------------------------------|
Eb|--------------------------------------------0-----|


Eb|--------------------------------------------------|--------------------------------------------------|
Bb|--------------------------------------------------|--------------------------------------------------|
Gb|--9--9--9-----------9--9--9-----------9--9--------|--9--9--9-----------9--9--9--------9--9--9--------|
Db|--------------------------------------------------|--------------------------------------------------|
Ab|--7--7--7-----------7--7--7-----------7--7--------|--7--7--7-----------7--7--7--------7--7--7--------|
Eb|--------------0--------0--0-----0-----------0-----|--------------0--------0--0-----------------8-----|


Eb|--------------------------------------------------|--------------------------------------------------|
Bb|--------------------------------------------------|--------------------------------------------------|
Gb|--9--9--9-----------9--9--9-----------9--9--------|--9--9--9-----------9--9--9-----------------------|
Db|--------------------------------------------------|--------------------------------------------------|
Ab|--7--7--7-----------7--7--7-----------7--7--0-----|--7--7--7-----0-----7--7--7-----------------------|
Eb|--------------8--------8--8-----8-----------------|--------------------------------0--3~-------------|

   --  Repeat [Bridge - Guitar 1] x2
   --  Song pauses briefly
   --  Repeat [Bridge - Guitar 1] x2


[2:16] [Bridge] - Guitar 2

Eb|--------------------------------------------------|--------------------------------------------------|
Bb|--10-10-10----------11-11-11----------12-12-------|--10-10-10----------11-11-11-------12-12-12-------|
Gb|--------------------------------------------------|--------------------------------------------------|
Db|--7--7--7-----------8--8--8-----------9--9--------|--7--7--7-----------8--8--8--------9--9--9--------|
Ab|--------------------------------------------------|--------------------------------------------------|
Eb|--------------------------------------------------|--------------------------------------------------|


Eb|--------------------------------------------------|--------------------------------------------------|
Bb|--10-10-10----------11-11-11----------12-12-------|--10-10-10----------11-11-11----------------------|
Gb|--------------------------------------------------|--------------------------------------------------|
Db|--7--7--7-----------8--8--8-----------9--9--------|--7--7--7-----------8--8--8-----------------------|
Ab|--------------------------------------------------|--------------------------------------------------|
Eb|--------------------------------------------------|--------------------------------0--3~-------------|

   --  Repeat [Bridge - Guitar 2] x2
   --  Song pauses briefly
   --  Repeat [Bridge - Guitar 2] x2


[3:05] [Chorus] - Guitar 1

Eb|--------------------------------------------------||--------------------------------------------------|
Bb|--------------------------------------------------||--------------------------------------------------|
Gb|--------------0-----------2-----------0~----------||--------------0-----------2~----------------------|
Db|--4-----------0-----------2-----------2~----------||--4-----------0-----------2~----------------------|
Ab|--4-----------5-----------0-----------2~----------||--4-----------5-----------0~----------------------|
Eb|--2-----------3-----------x-----------0~----------||--2-----------3-----------x-----------------------|

   --  Repeat [Chorus - Guitar 1] x2


[3:05] [Chorus] - Guitar 2

Eb|--------------------------------------------------||--------------------------------------------------|
Bb|--7-----------8----------10-----------5~----------||--7-----------8----------10~----------------------|
Gb|--6-----------7-----------9-----------4~----------||--6-----------7-----------9~----------------------|
Db|--4-----------5-----------7-----------2~----------||--4-----------5-----------7~----------------------|
Ab|--------------------------------------------------||--------------------------------------------------|
Eb|--------------------------------------------------||--------------------------------------------------|

   --  Repeat [Chorus - Guitar 2] x2


[3:27] [Outro] - Guitar 2

                                                              PM > > > > > > > > > > > > > > > > > > PM  
Eb|--------------------------------------------------|--------------------------------------------------|
Bb|-----------0-----------0-----------0--------------|--------------------------------------------------|
Gb|--------------------------------------------------|--9~----------------------------------------------| Rep.
Db|--------------------------------------------------|--9~----------------------------------------------| x4
Ab|--------------------------------------------------|--7~----7--7--7--7--7--7--7--7--7--7--7--7--7--7--|
Eb|--2--2--------3-----------5-----------0~----------|--------------------------------------------------|


Eb|--------------------------------------------------|--------------------------------------------------|
Bb|-----------0-----------0-----------0--------------|--------------------------------------------------|
Gb|--------------------------------------------------|--9~----------------------------------------------|
Db|--------------------------------------------------|--9~----------------------------------------------|
Ab|--------------------------------------------------|--7~----------------------------------------------|
Eb|--2--2--------3-----------5-----------0~----------|--------------------------------------------------|

            
Submit corrections


        Im Not Made By Design lessons Hard to play? Try these video lessons and learn fast Im Not Made By Design lessons
        
↑ Back to top | Tablatures and chords for acoustic guitar and electric guitar, ukulele, drums are parodies/interpretations of the original songs. You may use it for private study, scholarship, research or language learning purposes only