» » »

Northstar - Two Zero Two Tabs

Artists:  A B C D E F G H I J K L M N O P Q R S T U V W X Y Z # 

Two Zero Two Tabs

(ver. 1) Click to play this song!
Northstar
 Rating:
3.4/5 (9 votes)

 Two Zero Two lessons Tabs too difficult? Try these video lessons and learn fast
 
                intro:repeat
e-------------------------------------------------]
b-------------------------------------------------]
g---------0---0----0---0--------------------------]
d-----------0--------0----------------------------]
a-------7-------7---------------------------------]
e-------------------------------------------------]


verse"whats this odd game?"
e-------------------------------------------------]
b-------------------------------------------------]
g---------0---0----0---0--------------------------]
d-----------0--------0----------------------------]
a-------7-------7---------------------------------]
e-------------------------------------------------]

"its their loose lips..."
e----------------------------------]
b----------------------------------]
g----0---0----0---0----------------]
d------0--------0------------------]
a-2/3-------2/3--------------------]
e----------------------------------]

"on your chest..."
e-------------------------------------]
b-------------------------------------]
g-------0---0------0---0--------------]
d---------0----------0----------------]
a--5/7---------5/7--------------------]
e-------------------------------------]


little part before chorus
e----------------------]
b----------------------]
g-------0----------------]
d-----0----0~------------]
a-5/7------3~------------]
e----------------------]

chorus: "Does that dress fit alright?"
e-------------------------------------------]
b-------------------------------------------]
g-----7-------7--------7-------7------------]
d---5---5---5---5----5---5---5---5----------]
a-7-------5--------3-------5----------------]
e-------------------------------------------]

"Im a cabret..."
e-------------------------------------------------]
b-------------------------------------------------]
g---------0---0----0---0--------------------------]
d-----------0--------0----------------------------]
a-------7-------7---------------------------------]
e-------------------------------------------------]

"but im just not..."

e------------------------------------]
b------------------------------------]
g----0---0----0---0------------------]
d------0--------0--------------------]
a-2/3------2/3-----------------------]
e------------------------------------]

"death i ever had..."
e-------------------------------------]
b-------------------------------------]
g-------0---0------0---0--------------]
d---------0----------0----------------]
a--5/7---------5/7--------------------]
e-------------------------------------]

little part before chorus
e--------------------------]
b--------------------------]
g------0-------------------]
d----0-----0~--------------]
a-2/3------7~--------------]
e--------------------------]


chorus: "Does that dress fit alright?"
e-------------------------------------------]
b-------------------------------------------]
g-----7-------7--------7-------7------------]
d---5---5---5---5----5---5---5---5----------]
a-7-------5--------3-------5----------------]
e-------------------------------------------]

bridge:
e-----------------------------------------------]
b-----------------------------------------------]
g-------0--0-------0----0-----0---0----0----0---]
d-----------------------------------------------]
a--5/7---5--------------------------------------]
e-------------5/7----3----3/5---3--3/5---3------]



e---------------------------
b----------------------------
g--7/9-7---------------------
d--------7/9-5-9-7~-5-9-7~-5-
a----------------------------
e----------------------------

e--12~-10~-------------------------------]
b----------12-10~----12-10~--------------]
g----------------12~-------12~-----------]
d----------------------------------------]
a----------------------------------------]
e----------------------------------------]

does bridge while singing "I've got glass eyes..."
till end.

Two-Zero-Two
What's this odd game that's all over the airwaves?
It's their loose lips that laid me so sick with and ear 
pinned down on your chest...
And all I heard were sighs from that shotgun
that she hides so well under that dress
My my what an awful mess...

Does that dress fit alright?
I wanna know why it falls off and on
Are you ok baby?
Hopefully Mississippi will lynch you like it did me...

I'm a cabaret 
A Champaign café
Everyone uses to celebrate
But I'm just not ready to rot and dance and laugh 
to the sweetest death I ever had...
My my you look awful with a mouthful
Of sex ...like drugs
but I just can't seem to switch off this machine
That turns ivory into kerosene

Does that dress fit alright?
I wanna know why it falls off and on
Are you ok baby?
Hopefully New York City will lose you like it did me

I've got glass eyes that has dined so many times
with thighs and sighs that scream I got to get mine...


Okay heres "two zero two" i think its pretty much right but i dont have guitar 2 but
            
Submit corrections


        Two Zero Two lessons Hard to play? Try these video lessons and learn fast Two Zero Two lessons
        
↑ Back to top | Tablatures and chords for acoustic guitar and electric guitar, ukulele, drums are parodies/interpretations of the original songs. You may use it for private study, scholarship, research or language learning purposes only