Home » N » Northstar »

Northstar - My Richochet Tabs

Artists:  A B C D E F G H I J K L M N O P Q R S T U V W X Y Z # 

My Richochet Tabs

(ver. 1) Click to play this song!
Northstar
 Rating:
4/5 (8 votes)
                -------------------------------------------------------------------------------
                             My Richochet (Acoustic) - Northstar
-------------------------------------------------------------------------------

I tabbed this out in about 10 mins.  I'm sure there's some mistakes, but it 
the chords repeat and strumming but if you just listen to the song you'll get
it.


Tuning: Standard

Verse
e|----0-------0---------0-------------------------0---------0---------0------|
B|----0-------0---------2-------------------------0---------0---------2------|
G|----6-------9---------2-------------------------1---------6---------2------|
D|----6-------9---------2-------------------------2---------6---------2------|
A|----4-------7---------0-------------------------2---------4---------0------|
E|----x-------x---------0-------------------------0---------x---------0------|
   Someday stays...                             With magic so tragic...

Pre-chorus
e|---0---4----5--------------------------------------------------------------|
B|---0---4----5--------------------------------------------------------------|
G|---6---4----6--------------------------------------------------------------|
D|---6---6----7--------------------------------------------------------------|
A|---4---6----7--------------------------------------------------------------|
E|---x---4----5--------------------------------------------------------------|
   This is why I...

e|---0----0----4----0--------------------------------------------------------|
B|---0----0----4----2--------------------------------------------------------|
G|---1----4----4----2--------------------------------------------------------|
D|---2----4----6----2--------------------------------------------------------|
A|---2----2----6----0--------------------------------------------------------|
E|---0----x----4----0--------------------------------------------------------|
    Ooooooh..........

Chorus
e|---4-----0----0----0---------------------0-------0-0------4---5------------|
B|---4-----2----0----0---------------------0----0h2--0------4---5------------|
G|---4-----2----6----4---------------------1---------1------4---6------------|
D|---6-----2----6----4---------------------2---------2------6---7------------|
A|---6-----0----4----2---------------------2---------2------6---7------------|
E|---4-----0----x----x---------------------0---------0------4---5------------|
    You threw up my best skin...

End
e|---0----0----0-------------------------------------------------------------|
B|---0----2----0-------------------------------------------------------------|
G|---6----2----1-------------------------------------------------------------|
D|---6----2----2-------------------------------------------------------------|
A|---4----0----2-------------------------------------------------------------|
E|---x----0----0-------------------------------------------------------------|
    And I will never understand...



Song goes like this

Verse
Pre-chorus
Chorus
Verse
Pre-chorus
Chorus
Chorus
End
            
Submit corrections

↑ Back to top | Tablatures and chords for acoustic guitar and electric guitar, ukulele, drums are parodies/interpretations of the original songs. You may use it for private study, scholarship, research or language learning purposes only