» » »

Northstar - Between Horns And Halos Tabs

Artists:  A B C D E F G H I J K L M N O P Q R S T U V W X Y Z # 

Between Horns And Halos Tabs

(ver. 1) Click to play this song!
Northstar
 Rating:
4.3/5 (6 votes)

 Between Horns And Halos lessons Tabs too difficult? Try these video lessons and learn fast
 
                Intro:"Looking out of a second floor window"
e---------------------------------------------------------]
b---------------------------------------------------------]
g---------------------------------------------------------]
d--77777-22222--44444--22222------------------------------]
a--77777-22222--44444--22222------------------------------]
d--77777-22222--44444--22222------------------------------]


"shes so overlooked..."
e----------------------------------------------]
b----------------------------------------------]
g-------------66-------------------------------]
d-77777-22222-66-44--22-44--2222222------------]
a-77777-22222-44-44--22-44--2222222------------]
d-77777-22222----44--22-44--2222222------------] then repeat whole intro.
        .....

verse: " and I staggered off my love of..." palm muted
e-------------------------------------------------------]
b-----3-3-2-2-0------22----------33--220----------------]
g-2-2-----------4-0-----22----22-------------4-0--2222--]
d-------------------------------------------------------]
a-------------------------------------------------------]
d-------------------------------------------------------]

"she will sleep here..."-this the back riff of it
e---------------------------------------------------------------]
b---------------------------------------------------------------]
g---------------------------------------------------------------]
d--777777--22222--4444444--2222222------------------------------]repeat
a--777777--22222--4444444--2222222------------------------------]
d--777777--22222--4444444--2222222------------------------------]


"making off with the evening gown of..."

e---------------------------------------------------------]
b---------------------------------------------------------]
g---------------------------------------------------------]
d--77777-22222--44444--22222------------------------------]
a--77777-22222--44444--22222------------------------------]
d--77777-22222--44444--22222------------------------------]

"leaving this trail of misery..."
e----------------------------------------------]
b----------------------------------------------]
g-------------66-------------------------------]
d-77777-22222-66-44--22-44--2222222------------]
a-77777-22222-44-44--22-44--2222222------------]
d-77777-22222----44--22-44--2222222------------] 
        .....

"looking out of a second floor window"
e---------------------------------------------------------]
b---------------------------------------------------------]
g---------------------------------------------------------]
d--77777-22222--44444--22222------------------------------]
a--77777-22222--44444--22222------------------------------]
d--77777-22222--44444--22222------------------------------]

"back down to where she sleeps..."

e----------------------------------------------]
b----------------------------------------------]
g-------------66-------------------------------]
d-77777-22222-66-44--22-44--2222222------------]
a-77777-22222-44-44--22-44--2222222------------]
d-77777-22222----44--22-44--2222222------------] 
        .....

back to "and I staggered..."
then go to "she will sleep here..."

"this jezeble is bleeding from a place that..."
e---------------------------------------------------------]
b---------------------------------------------------------]
g---------------------------------------------------------]
d--77777-22222--44444--22222------------------------------]
a--77777-22222--44444--22222------------------------------]
d--77777-22222--44444--22222------------------------------]

"could never ever be replaced and..."
e--------------------------------------------------------------------]
b--------------------------------------------------------------------]
g--------------------------------------------------------------------]
d---77777---222222--444444---77-7---22--2----------------------------]
a---77777---222222--444444---77-7---22--2----------------------------]
d---77777---222222--444444---77-7---22--2----------------------------]
                             ..     ..


"this jezeble is bleeding from a place that..."
e---------------------------------------------------------]
b---------------------------------------------------------]
g---------------------------------------------------------]
d--77777-22222--44444--22222------------------------------]
a--77777-22222--44444--22222------------------------------]
d--77777-22222--44444--22222------------------------------]

"could never ever be replaced...
e-----------------------------------------------------------------------]
b-----------------------------------------------------------------------]
g----------------------------77-----------7-----------------------------]
d---77777---222222--444444---77-44-22-44--7-----------------------------]
a---77777---222222--444444---55-44-22-44--5-----------------------------]
d---77777---222222--444444------44-22-44--------------------------------]

ending:
e---------------------------------------------]
b---------------------------------------------]
g-77-----------7--77--------------7~----------]
d-77-44-22-44--7--77--44--22--44--7~----------]
a-55-44-22-44--5--55--44--22--44--5~----------]
d----44-22-44---------44--22--44--------------]

Looking out of a second floor window
Planning out my exit wound
She's so overlooked
This slaughter will get hotter and its
early overdue...
Trying on a makeshift halo
Kissing on my exit wound
Knowing well that the farthest place from heaven
lies just right inside your room....

And I staggered off my love of love,
romance and valentine ways....
She felt so cold, so cold
She froze under the sheets while I slept all day...

She will sleep here
In between the cracks
Just a flower with a broken back
...Waiting for dirty water...
Did you sleep alright...?
She's giving beat stares from being beat all day
Indian eyes in the American way

...Hail Mary's and ale..... 
A Hailed Mary that ails...

Making off with the evening gown of my darling
as she comes unglued
Leaving this trail of misery across my face
as it shot right up to the moon...

Looking out of a second floor window
I can feel me falling through
Back down to where she sleeps
Back down to her so shiny and so new

This jezebel is bleeding from a place
That can never ever be replaced

Hail Mary's and ale...

Okay theres another northstar tab im not so sure about this one but its as close
            
Submit corrections


        Between Horns And Halos lessons Hard to play? Try these video lessons and learn fast Between Horns And Halos lessons
        
↑ Back to top | Tablatures and chords for acoustic guitar and electric guitar, ukulele, drums are parodies/interpretations of the original songs. You may use it for private study, scholarship, research or language learning purposes only