» » »

Northstar - Accident Underwater Tabs

Artists:  A B C D E F G H I J K L M N O P Q R S T U V W X Y Z # 

Accident Underwater Tabs

(ver. 1) Click to play this song!
Northstar
 Rating:
4/5 (5 votes)

 Accident Underwater lessons Tabs too difficult? Try these video lessons and learn fast
 
                Intro
E|------------------------------------------------------|
B|------------------------------------------------------|
G|----8---5-------------55-----------00-----------00----|
D|-55---5---5-88----8------66----1------11----1------11-|
A|---------------66---6-------33---3-------11---1-------|
E|------------------------------------------------------|

|-----------------------------------------------------|
|-----------------------------------------------------|
|--------00-----------00-----------00-----------------|
|----1------11----1------11----1------11---------8h10-|
|-33---3-------11---1-------33---3-------6~--6h8------|
|----------------------------------------4~-----------|

verse
E-----------------------------------------------------------------------------|x3
B-----------------------------------------------------------------------------|
G-5555555555555555------------------------------------------------------------|
D-5555555555555555-33333333-66666666-33333333-----5---5-----------5---5-------|
A-3333333333333333-33333333-66666666-33333333---6-------6---6---6-------6---6-|
E------------------11111111-44444444-11111111-4-----4-----4---4-----4-----4---|

prechorus ("I'm a lover of useless things...")
E-------------------|------|-8~--|
B------8---9p8------|--8~--|-8~--|
G----8---8-----10p8-|--8~--|-8~--|
D-10----------------|-10~--|-----|
A-------------------|------|-----|
E-------3x----------|------|-----|
                      1st    2nd  ending

chorus ("Got so bright it died...")
E------------------------------------------------------|x2
B------------------------------------------------------|
G-88888888-55555555------------8---8-8-8--8/-----------|
D-88888888-55555555-3333/6666--8---8-8-8--8/-3333/6666-|
A-66666666-33333333-3333/6666--6---6-6-6--6/-3333/6666-|
E-------------------1111/4444----------------1111/4444-|

End of chorus (Not to sure about his part)
E------------------------------------------------------|
B-----3~--------------4-----4-6-6b8-4~--6b8-6b8-6b8-4~-|
G-----4~--3~------3h5---3h5----------------------------|
D-3~--4~--3~--5~---------------------------------------|
A-3~--2~--1~--6~---------------------------------------|
E-1~----------4~---------------------------------------|

|-----3-----3-------------------------------------|
|-----------------6-----6-----4-----4-----4-----4-|
|-3h5---3h5---3h5---3h5---3h5---3h5---3h5---3h5---|
|-------------------------------------------------|
|-------------------------------------------------|
|----------play-this-part-2x----------------------|

Verse
Prechorus
End of chorus

solo
E----------8---8---8---15----20p17-20p17-20p17-20p17-18p15-18p15-18p15-18p15-------------|
B------8v----8---8---8----13-------------------------------------------------16----------|
G--8v------------------------------------------------------------------------------------|
D----------------------------------------------------------------------------------------|
A-------------------------------------------------------------------------------66666666-|
E----------------------------------------------------------------------------------------|

|-----------------------------------------------------20b21-18-------15-16-15------------|
|--------------------------16-18-18b20r18-16-------------------16-18----------18-18-16~--|
|------8h10/12p10h12-15-17---------------------------------------------------------------|
|-8h10-----------------------------------------------------------------------------------|
|--------------------------------------------66666666------------------------------------|
|----------------------------------------------------------------------------------------|

|--------------3-----3-3h4p3--------------------------3-----3----------------------|
|----------------------------6-4-----4~---6b8r6-4-----------------6-----6-----4~---|
|----------3h5---3h5-------------3h5--------------3h5---3h5---3h5---3h5---3h5------|
|----------------------------------------------------------------------------------|
|-66666666-------------------------------------------------------------------------|
|----------------------------------------------------------------------------------|

Backing chords
E--------------------------------|x4 or x6
B--------------------------------|
G-55555555-------------------4-4-|
D-55555555-33333333-66666666-4-4-|
A-33333333-33333333-66666666-2-2-|
E----------11111111-44444444-----|
            
Submit corrections


        Accident Underwater lessons Hard to play? Try these video lessons and learn fast Accident Underwater lessons
        
↑ Back to top | Tablatures and chords for acoustic guitar and electric guitar, ukulele, drums are parodies/interpretations of the original songs. You may use it for private study, scholarship, research or language learning purposes only