» » »

Norma Jean - The Entire World Is Counting On Me Tabs

Artists:  A B C D E F G H I J K L M N O P Q R S T U V W X Y Z # 

The Entire World Is Counting On Me Tabs

(ver. 1) Click to play this song!
Norma Jean
 Rating:
4/5 (4 votes)

 The Entire World Is Counting On Me lessons Tabs too difficult? Try these video lessons and learn fast
 
                Norma Jean
"the entire world is counting on me and they don't even know it"
tuning Db (low to high) Db Ab Db Gb Bb Eb
both guitars play simutaniously unless indicated

riff 1		  riff 2
-----------------|----------------------------------
-----5-5-5-------|----8--8----8--8----8--8----------
-----7-7-7-------|----11-11---11-11---11-11--7-----
--0--------------|--0-------0-------0---------------
--0--------------|--0-------0-------0--------5-----
--0--------------|--0-------0-------0---------------

riff 3
---------------------------------------------
----9--9-----9--9----9--9--------------------
----12-12----12-12---12-12---12--------------
--0--------0-------0-------------------------
--0--------0-------0---------10--------------
--0--------0-------0-------------------------

riff 4 (guitar 1)  (guitar 2)
------------------|---------
------------13----|--9------
------------------|--12-----
--0-0-0-----10----|---------
--0-0-0-----------|---------
--0-0-0-----------|---------

riff 5 
----------|-----------------------------------------------------------------------------------------------
----------|-----------------------------------------------------------------------------------------------
----------|-----------------------------------------------------------------------------------------------
--00-00---|--0-0-0000--0-0-00-0-00000000-0-00-0000-0-0-0-0-0-0000-0-0-00-0-00000000-0-00-0000-0-0-00-0----
--00-00---|--0-0-0000--0-0-00-0-00000000-0-00-0000-0-0-0-0-0-0000-0-0-00-0-00000000-0-00-0000-0-0-00-0----
--00-00---|--0-0-0000--0-0-00-0-00000000-0-00-0000-0-0-0-0-0-0000-0-0-00-0-00000000-0-00-0000-0-0-00-0----
PM.. ..          ....      ..   ........      ....           ....     ..   ........      ....

riff 6	       riff 7			                (guitar 1)     (guitar 2)		
--------------|----------------------------------------|--------------|------------------
--------------|----------------------------------------|--------------|--15-15-15-15-15--
--------------|----------------------------------------|--------------|--12-12-12-12-12--
--87-5-73-62--|--0-0-0000--0-0-00-0-00000000-0-00-0000-|--0-0-0-0-0---|------------------
--87-5-73-62--|--0-0-0000--0-0-00-0-00000000-0-00-0000-|--0-0-0-0-0---|------------------
--87-5-73-62--|--0-0-0000--0-0-00-0-00000000-0-00-0000-|--0-0-0-0-0---|------------------
                     ....      ..   ........      ....

riff 8							    riff 9
-----------------------------------------------------------|---------------------------|
----12----12------12-------12-------12------12---12-12-12--|--12-12-12-12-12-12-12-12--|
------15-----15-----15--------15-------15-----15-15-15-15--|--15-15-15-15-15-15-15-15--|
--0-----0-------0--------0-------0--------0----------------|---------------------------|
-----------------------------------------------------------|---------------------------|
-----------------------------------------------------------|---------------------------|

riff 10 (guitar 1) 
|----------------|
|--11^(12)-------|
|--14^(15)-------|
|----------------|
|----------------|
|----------------| guitar 2 plays riff 9
            
Submit corrections


        The Entire World Is Counting On Me lessons Hard to play? Try these video lessons and learn fast The Entire World Is Counting On Me lessons
        
↑ Back to top | Tablatures and chords for acoustic guitar and electric guitar, ukulele, drums are parodies/interpretations of the original songs. You may use it for private study, scholarship, research or language learning purposes only