» » »

Norma Jean - The Close And Discontent Tabs

Artists:  A B C D E F G H I J K L M N O P Q R S T U V W X Y Z # 

The Close And Discontent Tabs

(ver. 1) Click to play this song!
Norma Jean
 Rating:
4.3/5 (29 votes)

 The Close And Discontent  lessons Tabs too difficult? Try these video lessons and learn fast
 
                [SECTION 1]

Guitar 2 (w/ a phaser pedal)
C#|------------------------------------------------|
G#|------------------------------------------------|
E |---------10----------10----------10----------10-|
B |---------10----------10----------10----------10-|x3
F#|------------------------------------------------|
B |-0h10h12-----0h10h12-----0h10h12-----0h10h12----|

Guitar 1
C#|-0--0--0--0--0--0--0--0--0--0--0--0--0--0--0--0-|
G#|-8--8--8--8--8--8--8--8--6--6--6--6--6--6--6--6-|
E |------------------------------------------------|
B |------------------------------------------------|
F#|------------------------------------------------|
B |------------------------------------------------|
||                                                 |
Guitar 2 (w/ a phaser pedal)                       |
C#|------------------------------------------------|
G#|------------------------------------------------|
E |---------10----------10----------10----------10-|
B |---------10----------10----------10----------10-|x2
F#|------------------------------------------------|
B |-0h10h12-----0h10h12-----0h10h12-----0h10h12----|

Both Guitars
C#|------------------------------------------------|
G#|------------------------------------------------|
E |---------10----------10----------10----------10-|
B |---------10----------10----------10----------10-|x4
F#|------------------------------------------------|
B |-0h10h12-----0h10h12-----0h10h12-----0h10h12----|

[TRANSITION 1]

Guitar 2
C#|--------------------------------------------------------|
G#|--------------------------------------------------------|
E |--------------------------------------------------------|
B |--------------------------------------------------------|
F#|-5b-5b-5b-5b-5b-5b-5b-5b-5b---------5b-5b-5b-5b-5b-5b---|
B |----------------------------0--0-0--------------------0-|

NOTE: This riff and the one at the end bend the 5 to a 6 gradually.

[SECTION 2]
Both Guitars (down octave pedal)
C#|-------------------------|  |--------------------------|
G#|-------------------------|  |--------------------------|
E |-------------------------|  |--------------------------|
B |-------------------------|x3|------------8-----------3-|
F#|-------------------------|  |-------8h10---------3h5---|
B |-0-0-0-2-0-0-0-2-0-3-0-2-|  |-8-8-8--------5-5-5-------|

C#|-------------------------|  |--------------------------|
G#|-------------------------|  |--------------------------|
E |-------------------------|  |--------------------------|
B |-------------------------|x3|------------8-----------3-|
F#|-------------------------|  |-------8h10---------3h5---|
B |-0-0-0-2-0-0-0-2-0-3-0-2-|  |-8-8-8--------5-5-5-------|

NOTE: I think they are dropping some of the above notes down with
      an octave pedal to give the riff a heavier crunch

[SECTION 3]
Both Guitars
C#|------------------------------------------------|
G#|------------------------------------------------|
E |---------10----------10----------10----------10-|
B |---------10----------10----------10----------10-|
F#|------------------------------------------------|
B |-0h10h12-----0h10h12-----0h10h12-----0h10h12----|

C#|-------------------------------------------------|
G#|-------------------------------------------------|
E |-------------------------------------------------|
B |-------------------------------------------------|
F#|-------------------------------------------------|
B |-0-0-0-0-0-0-0-0-0-0-0-0-0-0-0-0-0-0-0-0-0-0-0-0-|

C#|------------------------------------------------|
G#|------------------------------------------------|
E |---------10----------10----------10----------10-|
B |---------10----------10----------10----------10-|
F#|------------------------------------------------|
B |-0h10h12-----0h10h12-----0h10h12-----0h10h12----|

C#|-------------------------------------------------|
G#|-------------------------------------------------|
E |-------------------------------------------------|
B |-------------------------------------------------|
F#|-------------------------------------------------|
B |-0-0-0-0-0-0-0-0-0-0-0-0-0-0-0-0-0-0-0-0-0-0-0-0-|

[SECTION 4]
Guitar 2
C#|-------------------------|
G#|-------------------------|
E |-------------------------|
B |-0-0-0-2-0-0-0-2-0-3-0-2-|
F#|-------------------------|
B |-------------------------|
    . . .   . . .   .   .

Guitar 1
C#|-------------------------|  |-----------------------------------|
G#|-------------------------|  |-----------------------------------|
E |-------------------------|  |--------------12b13-12p10-12-------|
B |-------------------------|x3|------------8----------------12s10-|
F#|-------------------------|  |-------8h10------------------------|
B |-0-0-0-2-0-0-0-2-0-3-0-2-|  |-8-8-8-----------------------------|
||                                                        |
Guitar 2                                                  |
C#|-------------------------|  |--------------------------|
G#|-------------------------|  |--------------------------|
E |-------------------------|  |--------------------------|
B |-------------------------|x3|------------8-----------3-|
F#|-------------------------|  |-------8h10---------3h5---|
B |-0-0-0-2-0-0-0-2-0-3-0-2-|  |-8-8-8--------5-5-5-------|

Guitar 1
C#|-------------------------|  |-------------------------|
G#|-------------------------|  |-------------------------|
E |-------------------------|  |-------------------------|
B |-------------------------|x3|-8-8-8-8-8-8-5-5-5-5-5-5-|
F#|-------------------------|  |-x-x-x-x-x-x-x-x-x-x-x-x-|
B |-0-0-0-0-0-0-0-2-0-3-0-2-|  |-8-8-8-8-8-8-5-5-5-5-5-5-|
||                                                       |
Guitar 2                                                 |
C#|-------------------------|  |-------------------------|
G#|-------------------------|  |-------------------------|
E |-------------------------|  |-------------------------|
B |-------------------------|x3|-8-8-8-8-8-8-5-5-5-5-5-5-|
F#|-------------------------|  |-x-x-x-x-x-x-x-x-x-x-x-x-|
B |-0-0-0-0-0-0-0-----------|  |-8-8-8-8-8-8-5-5-5-5-5-5-|

Guitar 1
C#|-------------------------|  |-------------------------|
G#|-------------------------|  |-------------------------|
E |-------------------------|  |-------------------------|
B |-------------------------|x3|-8-8-8-8-8-8-5-5-5-5-5-5-|
F#|-------------------------|  |-x-x-x-x-x-x-x-x-x-x-x-x-|
B |-0-0-0-0-0-0-0-2-0-3-0-2-|  |-8-8-8-8-8-8-5-5-5-5-5-5-|
||                                                       |
Guitar 2                                                 |
C#|-------------------------|  |-------------------------|
G#|-------------------------|  |-------------------------|
E |-------------------------|  |-------------------------|
B |-------------------------|x3|-8-8-8-8-8-8-5-5-5-5-5-5-|
F#|-------------------------|  |-x-x-x-x-x-x-x-x-x-x-x-x-|
B |-0-0-0-0-0-0-0-----------|  |-8-8-8-8-8-8-5-5-5-5-5-5-|

[TRANSITION 2]

C#|-----------------------------------------|
G#|-----------------------------------------|
E |-7-7-7-7-7-7-7-7-7-------7-7-7-7-7-7-----|
B |-x-x-x-x-x-x-x-x-x-------x-x-x-x-x-x-----|x2
F#|-5-5-5-5-5-5-5-5-5-------5-5-5-5-5-5-----|
B |-------------------0--0--------------0---|


[SECTION 3B]
Both Guitars
C#|------------------------------------------------|
G#|------------------------------------------------|
E |---------10----------10----------10----------10-|
B |---------10----------10----------10----------10-|
F#|------------------------------------------------|
B |-0h10h12-----0h10h12-----0h10h12-----0h10h12----|

C#|-------------------------------------------------|
G#|-------------------------------------------------|
E |-------------------------------------------------|
B |-------------------------------------------------|
F#|-------------------------------------------------|
B |-0-0-0-0-0-0-0-0-0-0-0-0-0-0-0-0-0-0-0-0-0-0-0-0-|

C#|------------------------------------------------|
G#|------------------------------------------------|
E |---------10----------10----------10----------10-|
B |---------10----------10----------10----------10-|
F#|------------------------------------------------|
B |-0h10h12-----0h10h12-----0h10h12-----0h10h12----|

Guitar 1
C#|-------------------------------------------------|
G#|-------------------------------------------------|
E |-------------------------------------------------|
B |-------------------------------------------------|
F#|-------------------------------------------------|
B |-0-0-0-0-0-0-0-0-0-0-0-0-0-0-0-0-0-0-0-0-0-0-0-0-|
||                                      |
Guitar 2                                |
C#|-------------------------------------|
G#|-------------------------------------|
E |-------------------------------------|
B |-------------------------\\\\\\\\\\\-|
F#|-------------------------\pickslide\-|
B |-0-0-0-0-0-0-0-0-0-0-0-0-\\\\\\\\\\\-|

[SECTION 5]

Guitar 1
C#|--------------------------------------------------|
G#|--------------------------------------------------|
E |--------------------------------------------------|
B |-8-8-8-8-8-8-8-8-8-7-8-10-8-8-8-8-8-8-8-8-8-8-8-8-|
F#|-x-x-x-x-x-x-x-x-x-x-x--x-x-x-x-x-x-x-x-x-x-x-x-x-|
B |-8-8-8-8-8-8-8-8-8-7-8-10-8-8-8-8-8-8-8-8-8-8-8-8-|
||                                                  |
Guitar 2                                            |
C#|-------------------------------------------------|
G#|-------------------------------------------------|
E |-------------------------------------------------|
B |-8-8-8-8-8-8-8-8-8-8-8-8-5-5-5-5-5-5-5-5-5-5-5-5-|
F#|-x-x-x-x-x-x-x-x-x-x-x-x-x-x-x-x-x-x-x-x-x-x-x-x-|
B |-8-8-8-8-8-8-8-8-8-8-8-8-5-5-5-5-5-5-5-5-5-5-5-5-|

Both Guitars
C#|------------------------------------------------|
G#|------------------------------------------------|
E |---------10----------10----------10----------10-|
B |---------10----------10----------10----------10-|
F#|------------------------------------------------|
B |-0h10h12-----0h10h12-----0h10h12-----0h10h12----|

C#|------------------------------------------|
G#|------------------------------------------|
E |------------------------------------------|
B |-3-3-3-3-3-3-3-3-3-3-3-3-2--2--2--1--1--1-|
F#|-x-x-x-x-x-x-x-x-x-x-x-x-x--x--x--x--x--x-|
B |-3-3-3-3-3-3-3-3-3-3-3-3-2--2--2--1--1--1-|

[SECTION 5]

Guitar 2
C#|------------------------------------------------------|
G#|------------------------------------------------------|
E |------------------------------------------------------|
B |------------------------------------------------------|
F#|----------------------------0--0--------------------0-|
B |----------------------------0--0--------------------0-|
||
Guitar 2
C#|------------------------------------------------------|
G#|------------------------------------------------------|
E |------------------------------------------------------|
B |------------------------------------------------------|
F#|-5b-5b-5b-5b-5b-5b-5b-5b-5b-------5b-5b-5b-5b-5b-5b---|
B |----------------------------0--0--------------------0-|

Both Guitars
C#|------------------------------------------------------|
G#|------------------------------------------------------|
E |------------------------------------------------------|
B |------------------------------------------------------|x3
F#|-5b-5b-5b-5b-5b-5b-5b-5b-5b-------5b-5b-5b-5b-5b-5b---|
B |----------------------------0--0--------------------0-|

C#|-------------------------------------------------|
G#|-------------------------------------------------|
E |-------------------------------------------------|
B |-------------------------------------------------|
F#|-5b-5b-5b-5b-5b-5b-5b-5b-5b-------5b-5b-5b-0---0-|
B |----------------------------0--0-----------0---0-|            
Submit corrections


        The Close And Discontent  lessons Hard to play? Try these video lessons and learn fast The Close And Discontent  lessons
        
↑ Back to top | Tablatures and chords for acoustic guitar and electric guitar, ukulele, drums are parodies/interpretations of the original songs. You may use it for private study, scholarship, research or language learning purposes only