» » »

Norma Jean - I The Planet Tabs

Artists:  A B C D E F G H I J K L M N O P Q R S T U V W X Y Z # 

I The Planet Tabs

(ver. 1) Click to play this song!
Norma Jean
 Rating:
4.3/5 (27 votes)

 I The Planet lessons Tabs too difficult? Try these video lessons and learn fast
 
                [INTRO]
Guitar 2
B |-------------------------------|
F#|-------------------------------|
D |-7-7-7--7--7-8-7-7-7-8-7-7-7-8-|
A |-0-0-0--0--0-0-0-0-0-0-0-0-0-0-|x22
E |-------------------------------|
A |-------------------------------|

Guitar 1 (comes in after 4 bars of Guitar 2 strumming)(heavy delay)
B |------------------------------|  |-----------------------------------------------------|
F#|------------------------------|  |-----------------------------------------------------|
D |-10\----10\----14~----19b-----|  |-10-----10\----14--14--14-15-14-14-14-15-14-14-14-15-|
A |--0------0------0------0------|x2|--x------x------0---0---0--0--0--0--0--0--0--0--0--0-|
E |--8\-----8\----12~----17b-----|  |--8\-----8\----12--12--12-12-12-12-12-12-12-12-12-12-|
A |------------------------------|  |-----------------------------------------------------|

B |---------------------------------------------|  |-----|
F#|---------------------------------------------|  |-----|
D |-14-14-14--14--14-15-14-14-14-15-14-14-14-15-|  |-----|
A |--0--0--0---0---0--0--0--0--0--0--0--0--0--0-|x3|-19\-|
E |-12-12-12--12--12-12-12-12-12-12-12-12-12-12-|  |-17\-|
A |---------------------------------------------|  |-----|

[VERSE 1]
Both Guitars
B |-------------------------------|
F#|-------------------------------|
D |-------------------------------|
A |-------------------------------|x8
E |-------------------------------|
A |-1-0-0-0--0--0-1-0-0-0-1-0-0-0-|

[CHORUS]
Guitar 1
B |---------------------------------|---------------------------------|
F#|---------------------------------|---------------------------------|
D |---------------------------------|---------------------------------|
A |---------------------------------|---------------------------------|
E |-0-0-0-0-0-0-0-0-0-0-0-0-0-0-0-0-|-3-3-3-3-3-3-3-3-3-3-3-3-3-3-3-3-|
A |-0-0-0-0-0-0-0-0-0-0-0-0-0-0-0-0-|-3-3-3-3-3-3-3-3-3-3-3-3-3-3-3-3-|
||
Guitar 2
B |---------------------------------|-------------------------------------------------|
F#|---------------------------------|-------------------------------------------------|
D |-7-7-7-7-7-7-7-7-8-7-7-7-8-7-7-7-|-10-10-10-10-10-10-10-10-12-10-10-10-12-10-10-10-|
A |-0-0-0-0-0-0-0-0-0-0-0-0-0-0-0-0-|--0--0--0--0--0--0--0--0--0--0--0--0--0--0--0--0-|
E |---------------------------------|-------------------------------------------------|
A |---------------------------------|-------------------------------------------------|

Guitar 1
B |---------------------------------|---------------------------------|
F#|---------------------------------|---------------------------------|
D |---------------------------------|---------------------------------|
A |---------------------------------|---------------------------------|
E |-5-5-5-5-5-5-5-5-5-5-5-5-5-5-5-5-|-7-7-7-7-7-7-7-7-7-7-7-7-7-7-7-7-|
A |-5-5-5-5-5-5-5-5-5-5-5-5-5-5-5-5-|-7-7-7-7-7-7-7-7-7-7-7-7-7-7-7-7-|
||
Guitar 2
B |---------------------------------|---------------------------------|
F#|---------------------------------|---------------------------------|
D |-12------14-12-12-12-14-12-12-12-|-14------15-14-14-14-15-14-14-14-|
A |--0-(x8)--0--0--0--0--0--0--0--0-|--0-(x8)--0--0--0--0--0--0--0--0-|
E |---------------------------------|---------------------------------|
A |---------------------------------|---------------------------------|

Guitar 1
B |---------------------------------|---------------------------------|
F#|---------------------------------|---------------------------------|
D |---------------------------------|---------------------------------|
A |---------------------------------|---------------------------------|
E |-0-0-0-0-0-0-0-0-0-0-0-0-0-0-0-0-|-3-3-3-3-3-3-3-3-3-3-3-3-3-3-3-3-|
A |-0-0-0-0-0-0-0-0-0-0-0-0-0-0-0-0-|-3-3-3-3-3-3-3-3-3-3-3-3-3-3-3-3-|
||
Guitar 2
B |---------------------------------|--------------------------------|
F#|---------------------------------|--------------------------------|
D |-14------15-14-14-14-15-14-14-14-|-14-----15-14-14-14-15-14-14-14-|
A |--0-(x8)--0--0--0--0--0--0--0--0-|--0-(x8)-0--0--0--0--0--0--0--0-|
E |---------------------------------|--------------------------------|
A |---------------------------------|--------------------------------|

Guitar 1
B |---------------------------------|---------------------------------|
F#|---------------------------------|---------------------------------|
D |---------------------------------|---------------------------------|
A |---------------------------------|---------------------------------|
E |-5-5-5-5-5-5-5-5-5-5-5-5-5-5-5-5-|-7-7-7-7-7-7-7-7-7-7-7-7-7-7-7-7-|
A |-5-5-5-5-5-5-5-5-5-5-5-5-5-5-5-5-|-7-7-7-7-7-7-7-7-7-7-7-7-7-7-7-7-|
||
Guitar 2
B |----------------|--------------------------------|
F#|----------------|--------------------------------|
D |-12-------14-14-|-14-----15-14-14-14-15-14-14-14-|
A |--0-(x10)--0--0-|--0(x12)-0--0--0--0--0--0--0--0-|
E |----------------|--------------------------------|
A |----------------|--------------------------------|

[TRANSITION]
Guitar 2
B |--------------------------------|  |--------------------------|
F#|--------------------------------|  |--------------------------|
D |-8-7-7-7--7-7-7-8-7-7-7-8-7-7-7-|  |-8-7-7-7--7-7-7-8-7-7-7-7-|
A |-0-0-0-0--0-0-0-0-0-0-0-0-0-0-0-|x3|-0-0-0-0--0-0-0-0-0-0-0-0-|
E |--------------------------------|  |--------------------------|
A |--------------------------------|  |--------------------------|

[VERSE 2]
Both Guitars
B |-------------------------------|
F#|-------------------------------|
D |-------------------------------|
A |-------------------------------|x8
E |-------------------------------|
A |-1-0-0-0--0--0-1-0-0-0-1-0-0-0-|

[CHORUS]
Guitar 1
B |---------------------------------|---------------------------------|
F#|---------------------------------|---------------------------------|
D |---------------------------------|---------------------------------|
A |---------------------------------|---------------------------------|
E |-0-0-0-0-0-0-0-0-0-0-0-0-0-0-0-0-|-3-3-3-3-3-3-3-3-3-3-3-3-3-3-3-3-|
A |-0-0-0-0-0-0-0-0-0-0-0-0-0-0-0-0-|-3-3-3-3-3-3-3-3-3-3-3-3-3-3-3-3-|
||
Guitar 2
B |---------------------------------|-------------------------------------------------|
F#|---------------------------------|-------------------------------------------------|
D |-7-7-7-7-7-7-7-7-8-7-7-7-8-7-7-7-|-10-10-10-10-10-10-10-10-12-10-10-10-12-10-10-10-|
A |-0-0-0-0-0-0-0-0-0-0-0-0-0-0-0-0-|--0--0--0--0--0--0--0--0--0--0--0--0--0--0--0--0-|
E |---------------------------------|-------------------------------------------------|
A |---------------------------------|-------------------------------------------------|

Guitar 1
B |---------------------------------|---------------------------------|
F#|---------------------------------|---------------------------------|
D |---------------------------------|---------------------------------|
A |---------------------------------|---------------------------------|
E |-5-5-5-5-5-5-5-5-5-5-5-5-5-5-5-5-|-7-7-7-7-7-7-7-7-7-7-7-7-7-7-7-7-|
A |-5-5-5-5-5-5-5-5-5-5-5-5-5-5-5-5-|-7-7-7-7-7-7-7-7-7-7-7-7-7-7-7-7-|
||
Guitar 2
B |---------------------------------|---------------------------------|
F#|---------------------------------|---------------------------------|
D |-12------14-12-12-12-14-12-12-12-|-14------15-14-14-14-15-14-14-14-|
A |--0-(x8)--0--0--0--0--0--0--0--0-|--0-(x8)--0--0--0--0--0--0--0--0-|
E |---------------------------------|---------------------------------|
A |---------------------------------|---------------------------------|

Guitar 1
B |---------------------------------|---------------------------------|
F#|---------------------------------|---------------------------------|
D |---------------------------------|---------------------------------|
A |---------------------------------|---------------------------------|
E |-0-0-0-0-0-0-0-0-0-0-0-0-0-0-0-0-|-3-3-3-3-3-3-3-3-3-3-3-3-3-3-3-3-|
A |-0-0-0-0-0-0-0-0-0-0-0-0-0-0-0-0-|-3-3-3-3-3-3-3-3-3-3-3-3-3-3-3-3-|
||
Guitar 2
B |---------------------------------|--------------------------------|
F#|---------------------------------|--------------------------------|
D |-14------15-14-14-14-15-14-14-14-|-14-----15-14-14-14-15-14-14-14-|
A |--0-(x8)--0--0--0--0--0--0--0--0-|--0-(x8)-0--0--0--0--0--0--0--0-|
E |---------------------------------|--------------------------------|
A |---------------------------------|--------------------------------|

Guitar 1
B |---------------------------------|---------------------------------|
F#|---------------------------------|---------------------------------|
D |---------------------------------|---------------------------------|
A |---------------------------------|---------------------------------|
E |-5-5-5-5-5-5-5-5-5-5-5-5-5-5-5-5-|-7-7-7-7-7-7-7-7-7-7-7-7-7-7-7-7-|
A |-5-5-5-5-5-5-5-5-5-5-5-5-5-5-5-5-|-7-7-7-7-7-7-7-7-7-7-7-7-7-7-7-7-|
||
Guitar 2
B |----------------|----------------------------------|
F#|----------------|----------------------------------|
D |-12-------14-14-|-14-------15-14-14-14-15-14-14-14-|
A |--0-(x10)--0--0-|--0-(x12)--0--0--0--0--0--0--0--0-|
E |----------------|----------------------------------|
A |----------------|----------------------------------|

[CHORUS 3]
Guitar 1
B |---------------------------------|---------------------------------|
F#|---------------------------------|---------------------------------|
D |---------------------------------|---------------------------------|
A |---------------------------------|---------------------------------|
E |-0-0-0-0-0-0-0-0-0-0-0-0-0-0-0-0-|-3-3-3-3-3-3-3-3-3-3-3-3-3-3-3-3-|
A |-0-0-0-0-0-0-0-0-0-0-0-0-0-0-0-0-|-3-3-3-3-3-3-3-3-3-3-3-3-3-3-3-3-|
||
Guitar 2
B |-----------------------------------------------|-------------------------------------------------|
F#|-----------------------------------------------|-------------------------------------------------|
D |-14-14-14-14--14-14-14-15-14-14-14-15-14-14-14-|-15-14-14-14--14-14-14-15-14-14-14-15-14-14-14---|
A |--x--x--x--x---x--x--x--x--x--x--x--x--x--x--x-|--x--x--x--x---x--x--x--x--x--x--x--x--x--x--x---|
E |-12-12-12-12--12-12-12-12-12-12-12-12-12-12-12-|-12-12-12-12--12-12-12-12-12-12-12-12-12-12-12---|
A |-----------------------------------------------|-------------------------------------------------|
||
Extra Guitar
B |-17--18~-----------|----17--18~------------|
F#|---------15--17----|-------------15--17b18-|
D |-------------------|-----------------------|
A |-------------------|-----------------------|
E |-------------------|-----------------------|
A |-------------------|-----------------------|

Guitar 1
B |---------------------------------|---------------------------------|
F#|---------------------------------|---------------------------------|
D |---------------------------------|---------------------------------|
A |---------------------------------|---------------------------------|
E |-5-5-5-5-5-5-5-5-5-5-5-5-5-5-5-5-|-7-7-7-7-7-7-7-7-7-7-7-7-7-7-7-7-|
A |-5-5-5-5-5-5-5-5-5-5-5-5-5-5-5-5-|-7-7-7-7-7-7-7-7-7-7-7-7-7-7-7-7-|
||
Guitar 2
B |-----------------------------------------------|-------------------------------------------------|
F#|-----------------------------------------------|-------------------------------------------------|
D |-12-12-12-12--12-12-12-12-12-12-12-12-12-14-14-|-14-14-14-14--14-14-14-15-14-14-14-15-14-14-14---|
A |--x--x--x--x---x--x--x--x--x--x--x--x--x--x--x-|--x--x--x--x---x--x--x--x--x--x--x--x--x--x--x---|
E |-10-10-10-10--10-10-10-10-10-10-10-10-10-12-12-|-12-12-12-12--12-12-12-12-12-12-12-12-12-12-12---|
A |-----------------------------------------------|-------------------------------------------------|
||
Extra Guitar
B |-17--18~-----------|----17--18~------------|
F#|---------15--17----|-------------15--17b18-|
D |-------------------|-----------------------|
A |-------------------|-----------------------|
E |-------------------|-----------------------|
A |-------------------|-----------------------|

Guitar 1
B |---------------------------------|---------------------------------|
F#|---------------------------------|---------------------------------|
D |---------------------------------|---------------------------------|
A |---------------------------------|---------------------------------|
E |-0-0-0-0-0-0-0-0-0-0-0-0-0-0-0-0-|-3-3-3-3-3-3-3-3-3-3-3-3-3-3-3-3-|
A |-0-0-0-0-0-0-0-0-0-0-0-0-0-0-0-0-|-3-3-3-3-3-3-3-3-3-3-3-3-3-3-3-3-|
||
Guitar 2
B |-----------------------------------------------|-------------------------------------------------|
F#|-----------------------------------------------|-------------------------------------------------|
D |-14-14-14-14--14-14-14-15-14-14-14-15-14-14-14-|-12-12-12-12--12-12-12-12-14-14-14-14-14-14-14---|
A |--x--x--x--x---x--x--x--x--x--x--x--x--x--x--x-|--x--x--x--x---x--x--x--x--x--x--x--x--x--x--x---|
E |-12-12-12-12--12-12-12-12-12-12-12-12-12-12-12-|-10-10-10-10--10-10-10-10-12-12-12-12-12-12-12---|
A |-----------------------------------------------|-------------------------------------------------|
||
Extra Guitar
B |-17--18~-----------|----17--18~------------|
F#|---------15--17----|-------------15--17b18-|
D |-------------------|-----------------------|
A |-------------------|-----------------------|
E |-------------------|-----------------------|
A |-------------------|-----------------------|

Guitar 1
B |---------------------------------|---------------------------------|
F#|---------------------------------|---------------------------------|
D |---------------------------------|---------------------------------|
A |---------------------------------|---------------------------------|
E |-5-5-5-5-5-5-5-5-5-5-5-5-5-5-5-5-|-7-7-7-7-7-7-7-7-7-7-7-7-7-7-7-7-|
A |-5-5-5-5-5-5-5-5-5-5-5-5-5-5-5-5-|-7-7-7-7-7-7-7-7-7-7-7-7-7-7-7-7-|
||
Guitar 2
B |-----------------------------------------------|-------------------------------------------------|
F#|-----------------------------------------------|-------------------------------------------------|
D |-14-14-14-14--14-14-14-15-14-14-14-15-14-14-14-|-12-12-12-12--12-12-12-12-12-12-12-12-12-12-12---|
A |--x--x--x--x---x--x--x--x--x--x--x--x--x--x--x-|--x--x--x--x---x--x--x--x--x--x--x--x--x--x--x---|
E |-12-12-12-12--12-12-12-12-12-12-12-12-12-12-12-|-10-10-10-10--10-10-10-10-10-10-10-10-10-10-10---|
A |-----------------------------------------------|-------------------------------------------------|
||
Extra Guitar
B |-17--18~-----------|----17--18~------------|
F#|---------15--17----|-------------15--17b18-|
D |-------------------|-----------------------|
A |-------------------|-----------------------|
E |-------------------|-----------------------|
A |-------------------|-----------------------|

[OUTRO]
Both Guitars
B |-----------------------------------------|
F#|-----------------------------------------|
D |-----------------------------------------|
A |-----------------------------------------|
E |-0---------------------------------------|
A |-0---------------------------------------|
||
Extra Guitar
B |-17--18~-------------|------17--18~-------------|
F#|---------15--17~-----|---------------15--17b18~-|
D |---------------------|--------------------------|
A |---------------------|--------------------------|
E |---------------------|--------------------------|
A |---------------------|--------------------------|            
Submit corrections


        I The Planet lessons Hard to play? Try these video lessons and learn fast I The Planet lessons
        
↑ Back to top | Tablatures and chords for acoustic guitar and electric guitar, ukulele, drums are parodies/interpretations of the original songs. You may use it for private study, scholarship, research or language learning purposes only