» » »

Norma Jean - Forever Hurtling Towards Andromeda Tabs

Artists:  A B C D E F G H I J K L M N O P Q R S T U V W X Y Z # 

Forever Hurtling Towards Andromeda Tabs

(ver. 1) Click to play this song!
Norma Jean
 Rating:
4.3/5 (12 votes)

 Forever Hurtling Towards Andromeda  lessons Tabs too difficult? Try these video lessons and learn fast
 
                Tuning: Drop C

Guitar 1: Left Stereo
Guitar 2: Right Stereo

[SECTION 1]

Both Guitars
D|--------------------------|
A|--------------------------|
F|---------3--------------3-|
C|-2-----0----------2---0---|x2
G|-3-00001--------003-001---|
C|-2-00000----5b--002-000---|
     ....         ..  ..

Guitar 1
D|-----------------------------------------------------------0---0-------------0-|
A|-----------------------------------------------------------0---0-------------0-|
F|---------3--------------3----------3-----------------------0---0-------------0-|
C|-2-----0----------2---0----2-----0---------------------------8---8---5\--------|
G|-3-00001--------003-001----3-00001--------00-----------------8---8-0-x--0000---|
C|-2-00000----5b--002-000----2-00000----5b--00-2-5-3-6-5v-8b---8---8-0-5\-0000---|
||   ....         ..  ..       ....         ..                       .    ....   |
Guitar 2                                                                         |
D|-----------------------------------------------------------0---0-------------0-|
A|---------3-------------------------3-----------------------0---0-------------0-|
F|------------------------3----------------------------------0---0-------------0-|
C|-2-----0----------2---0----2-----0---------------------------8---8---5\--------|
G|-3-00001--------003-001----3-00001--------00-----------------8---8-0-x--0000---|
C|-2-00000----5b--002-000----2-00000----5b--00-2-5-3-6-5v-8b---8---8-0-5\-0000---|
     ....         ..  ..       ....         ..                       .    ....

[SECTION 2]

Both Guitars
D|------------------------------------|
A|-8888--88-----------8888--88--------|
F|-0000--00-----------0000--00--------|
C|-----8---8-6--5b6r5-----8---8-5b6r5-|x4
G|-----x---x-x--x---------x---x-x-----|
C|-----8---8-6--5b6r5-----8---8-5b6r5-|

[SECTION 3]

Both Guitars
D|------------------------------------------------------|
A|------------------------------------------------------|
F|-2-4---4--2-4---4--2-4----2-4---4--2-4----------------|
C|-3-5---5--3-5---5--3-5----3-5---5--3-5--1-1-1-1-1-1-1-|
G|-3-5---5--3-5---5--3-5----3-5---5--3-5--1-1-1-1-1-1-1-|
C|-3-5---5--3-5---5--3-5----3-5---5--3-5--1-1-1-1-1-1-1-|

D|--------------------------------------------------------------|
A|--------------------------------------------------------------|
F|-2-4---4--2-4---4--2-4----2-4---4--2-4------------------------|
C|-3-5---5--3-5---5--3-5----3-5---5--3-5--1-1-1-1-1-1-1-1-1-1-1-|
G|-3-5---5--3-5---5--3-5----3-5---5--3-5--1-1-1-1-1-1-1-1-1-1-1-|
C|-3-5---5--3-5---5--3-5----3-5---5--3-5--1-1-1-1-1-1-1-1-1-1-1-|

[SECTION 4]

Guitar 1
D|----------------------------------------------------------------------|
A|------11-----------11-----------11-------11----------11---15\-15\-15\-|
F|-10h12----12--10h12----12--10h12----10h12----12-10h12--12--x---x---x--|
C|----------------------------------------------------------13\-13\-13\-|
G|----------------------------------------------------------------------|
C|----------------------------------------------------------------------|
||                                                                 |
Guitar 2                                                           |
D|-----------------------------------------------------------------|
A|-----------------------------------------------------------------|
F|-----------------------------------------------------------------|
C|-----------------------------------------------------------------|
G|-----------------------------------------------------------------|
C|-1-1-1-1-1-1-1-1-1s4-4-4-4-4-4-4-4s5-5-5-5-5-5-5-5-0-4-0-0-0-0-0-|

Guitar 1
D|------------------------------------------------------10-10-10-10-10-10-10-10-|
A|------11-----------11-----------11-------11-----------11-11-11-11-11-11-11-11-|
F|-10h12----12--10h12----12--10h12----10h12----12-10h12-12-12-12-12-12-12-12-12-|
C|------------------------------------------------------------------------------|
G|------------------------------------------------------------------------------|
C|------------------------------------------------------------------------------|
||                                                                     |
Guitar 2                                                               |
D|---------------------------------------------------------------------|
A|---------------------------------------------------------------------|
F|---------------------------------------------------------------------|
C|---------------------------------------------------------------------|
G|---------------------------------------------------------------------|
C|-1-1-1-1-1-1-1-1-1s4-4-4-4-4-4-4-4s5-5-5-5-5-5-5-5-5-5-5-5b-5b-5b-5b-|

[SECTION 2B]

Guitar 1
D|------------------------------------|
A|-8888--88-----------8888--88--------|
F|-0000--00-----------0000--00--------|
C|-----8---8-6--5b6r5-----8---8-5b6r5-|x2
G|-----x---x-x--x---------x---x-x-----|
C|-----8---8-6--5b6r5-----8---8-5b6r5-|
||                                    |
Guitar 2                              |
D|------------------------------------|
A|------------------------------------|
F|------------------------------------|
C|-----8---8-6--5b6r5-----8---8-5b6r5-|x2
G|-----x---x-x--x---------x---x-x-----|
C|-----8---8-6--5b6r5-----8---8-5b6r5-|

Both Guitars
D|------------------------------------|
A|-8888--88-----------8888--88--------|
F|-0000--00-----------0000--00--------|
C|-----8---8-6--5b6r5-----8---8-5b6r5-|x2
G|-----x---x-x--x---------x---x-x-----|
C|-----8---8-6--5b6r5-----8---8-5b6r5-|

[SECTION 5]

Guitar 1
D|-13-------13-11--------------------------------------------------------------------------------|
A|----11-------------------13s15-16---15-16-18---18-16-15-15-15-15-15-15-15-15-15----------------|
F|-------12-------12-10-12----------0--x--x--x-0--x--x-15-15-15-15-15-15-15-15-15-12s15-17-15s12-|
C|------------------------------------12-13-15---15-13-12-12-12-12-12-12-12-12-12----------------|
G|-----------------------------------------------------------------------------------------------|
C|-----------------------------------------------------------------------------------------------|
||                                                                 |
Guitar 2                                                           |
D|-----------------------------------------------------------------|
A|-----------------------------------------------------------------|
F|-----------------------------------------------------------------|
C|-1-1-1-1-1-1-1-1-1s4-4-4-4-4-4-4-4s5-5-5-5-5-5-5-5-0-4-0-0-0-0-0-|
G|-1-1-1-1-1-1-1-1-1s4-4-4-4-4-4-4-4s5-5-5-5-5-5-5-5-0-4-0-0-0-0-0-|
C|-1-1-1-1-1-1-1-1-1s4-4-4-4-4-4-4-4s5-5-5-5-5-5-5-5-0-4-0-0-0-0-0-|

Guitar 1
D|-13-------13-11------------------------------------------------------------------------------|
A|----11-------------------13s15-16---15-16-18---18-16-15-15-15-15-15-15-15-15-15-15-15-15-15\-|
F|-------12-------12-10-12----------0--x--x--x-0--x--x-15-15-15-15-15-15-15-15-15-15-15-15-15\-|
C|------------------------------------12-13-15---15-13-12-12-12-12-12-12-12-12-12-12-12-12-12\-|
G|---------------------------------------------------------------------------------------------|
C|---------------------------------------------------------------------------------------------|
||                                                                 |
Guitar 2                                                           |
D|-----------------------------------------------------------------|
A|-----------------------------------------------------------------|
F|-----------------------------------------------------------------|
C|-1-1-1-1-1-1-1-1-1s4-4-4-4-4-4-4-4s5-5-5-5-5-5-5-5-5-5-5-5-5-5\--|
G|-1-1-1-1-1-1-1-1-1s4-4-4-4-4-4-4-4s5-5-5-5-5-5-5-5-5-5-5-5-5-5\--|
C|-1-1-1-1-1-1-1-1-1s4-4-4-4-4-4-4-4s5-5-5-5-5-5-5-5-5-5-5-5-5-5\--|


[SECTION 6]

Guitar 1
D|-----------------------------------------------------------------|
A|-----------------------------------------------------------------|
F|-----------------------------------------------------------------|
C|-8-8-8-8-8-8-8-8-8-8-8-8-8-8-8-8-8-8-8-8-8-8-8-8-8s6-6-6-6-6-6-6-|
G|-x-x-x-x-x-x-x-x-x-x-x-x-x-x-x-x-x-x-x-x-x-x-x-x-x---x-x-x-x-x-x-|
C|-8-8-8-8-8-8-8-8-8-8-8-8-8-8-8-8-8-8-8-8-8-8-8-8-8s6-6-6-6-6-6-6-|
||                                                                 |
Guitar 2                                                           |
D|-----------------------------------------------------------------|
A|-----------------------------------------------------------------|
F|-----------------------------------------------------------------|
C|-1-1-1-1-1-1-1-1-1s4-4-4-4-4-4-4-4s5-5-5-5-5-5-5-5-0-0-0-0-0-0-0-|
G|-x-x-x-x-x-x-x-x-x---x-x-x-x-x-x-x---x-x-x-x-x-x-x-x-x-x-x-x-x-x-|
C|-1-1-1-1-1-1-1-1-1s4-4-4-4-4-4-4-4s5-5-5-5-5-5-5-5-0-0-0-0-0-0-0-|

Guitar 1
D|-----------------------------------------------------------------|
A|-----------------------------------------------------------------|
F|-----------------------------------------------------------------|
C|-8-8-8-8-8-8-8-8-8-8-8-8-8-8-8-8-8-8-8-8-8-8-8-8-8s5-5-5-5-5-5-5-|
G|-x-x-x-x-x-x-x-x-x-x-x-x-x-x-x-x-x-x-x-x-x-x-x-x-x---x-x-x-x-x-x-|
C|-8-8-8-8-8-8-8-8-8-8-8-8-8-8-8-8-8-8-8-8-8-8-8-8-8s5-5-5-5-5-5-5-|
||                                                                 |
Guitar 2                                                           |
D|-----------------------------------------------------------------|
A|-----------------------------------------------------------------|
F|-----------------------------------------------------------------|
C|-1-1-1-1-1-1-1-1-1s4-4-4-4-4-4-4-4s5-5-5-5-5-5-5-5-5-5-5-5-5-5-5-|
G|-x-x-x-x-x-x-x-x-x---x-x-x-x-x-x-x---x-x-x-x-x-x-x-x-x-x-x-x-x-x-|
C|-1-1-1-1-1-1-1-1-1s4-4-4-4-4-4-4-4s5-5-5-5-5-5-5-5-5-5-5-5-5-5-5-|

[SECTION 7]

Both Guitars
D|-------------------------------------------------------------|
A|-------------------------------------------------------------|
F|-------------------------------------------------------------|
C|-3-5--8b--3-5--8b--6-6-6-6-3-5--8b--3-5--8b--6-6-6-6---------|x2
G|-x-x--x---x-x--x---x-x-x-x-x-x--x---x-x--x---x-x-x-x-0-0-0-0-|
C|-3-5--8b--3-5--8b--6-6-6-6-3-5--8b--3-5--8b--6-6-6-6-0-0-0-0-|
                                                       . . . .
[SECTION 8]

Both Guitars
D|------------------------|
A|------------------------|
F|---------3--------------|
C|-2-----0----5b----------|
G|-3-00001----x---0-0-0-0-|
C|-2-00000----5b--0-0-0-0-|
     ....         . . . .

D|--------------------------|
A|--------------------------|
F|---------3--------------3-|
C|-2-----0----------2---0---|x2
G|-3-00001--------003-001---|
C|-2-00000----5b--002-000---|
     ....         ..  ..

D|---------------------------|
A|---------------------------|
F|---------------------------|
C|-2-----0---------2---0-----|x3
G|-3-00001-------003-001-----|
C|-2-00000-/8s3--002-000-/5v-|
     ....        ..  ..

D|------------------------|
A|------------------------|
F|------------------------|
C|-2-----0---------2---0--|
G|-3-00001-------003-001--|
C|-2-00000-/8s3--002-000--|
     ....        ..  ..


D|----------------------|
A|----------------------|
F|----------------------|
C|-2-----0---5----1---0-|x4
G|-2-00000---5--001-000-|
C|-2-00000---5--001-000-|
     ....       ..  ..            
Submit corrections


        Forever Hurtling Towards Andromeda  lessons Hard to play? Try these video lessons and learn fast Forever Hurtling Towards Andromeda  lessons
        
↑ Back to top | Tablatures and chords for acoustic guitar and electric guitar, ukulele, drums are parodies/interpretations of the original songs. You may use it for private study, scholarship, research or language learning purposes only