» » »

Norma Jean - Death Is A Living Partner Tabs

Artists:  A B C D E F G H I J K L M N O P Q R S T U V W X Y Z # 

Death Is A Living Partner Tabs

(ver. 1) Click to play this song!
Norma Jean
 Rating:
4.3/5 (16 votes)

 Death Is A Living Partner  lessons Tabs too difficult? Try these video lessons and learn fast
 
                [SECTION 1]

Both Guitars
C#|-------------------------------------------------------------|
G#|-------------------6-6---------------------------------------|
E |-------------------7-7---7s8-5s7-----------------------------|
B |----------------6--7-7---x---x-----6--6---6--6---6--6---6--6-|
F#|-------/5-6-5-0-x------0-5s6-3s5-0-x--x-0-x--x-0-x--x-0-x--x-|
B |-0-6-0----------6------0---------0-6--6-0-6--6-0-6--6-0-6--6-|
                          .         .      .      .      .

C#|-------------------------------------------------------------|
G#|-------------------6-6---------------------------------------|
E |-------------------7-7---7s8-5s7-----------------------------|
B |----------------6--7-7---x---x-----6--6---3--3---5--5---2--2-|
F#|-------/5-6-5-0-x------0-5s6-3s5-0-x--x-0-x--x-0-x--x-0-x--x-|
B |-0-6-0----------6------0---------0-6--6-0-3--3-0-5--5-0-2--2-|
                          .         .      .      .      .

C#|-------------------------------------------------------------|
G#|-------------------6-6---------------------------------------|
E |-------------------7-7---7s8-5s7-----------------------------|
B |----------------6--7-7---x---x-----6--6---6--6---6--6---6--6-|
F#|-------/5-6-5-0-x------0-5s6-3s5-0-x--x-0-x--x-0-x--x-0-x--x-|
B |-0-6-0----------6------0---------0-6--6-0-6--6-0-6--6-0-6--6-|
                          .         .      .      .      .

C#|-------------------------------------------------------------|
G#|-------------------6-6---------------------------------------|
E |-------------------7-7---7s8-5s7-----------------------------|
B |----------------6--7-7---x---x-----6--6---3--3---5--5---2--2-|
F#|-------/5-6-5-0-x------0-5s6-3s5-0-x--x-0-x--x-0-x--x-0-x--x-|
B |-0-6-0----------6------0---------0-6--6-0-3--3-0-5--5-0-2--2-|
                          .         .      .      .      .

C#|--------------------------------------------------------------------------------------|
G#|--------------------------------------------------------------------------------------|
E |--------------------------------------------------------------------------------------|
B |---6--6---3--3---5--5---2--2-0-6--6-0-3--3-0-5-5-5-0-2-2-2-0-6--6-0-3--3-0-5-5-5-2--2-|
F#|-0-x--x-0-x--x-0-x--x-0-x--x-0-6--6-0-3--3-0-5-5-5-0-2-2-2-0-6--6-0-3--3-0-5-5-5-2--2-|
B |-0-6--6-0-3--3-0-5--5-0-2--2-0-6--6-0-3--3-0-5-5-5-0-2-2-2-0-6--6-0-3--3-0-5-5-5-2--2-|
    .      .      .      .

[SECTION 2]

Both Guitars
C#|-----------------------------------------------------------------|
G#|-6-6-6-6-6-6-6-6-------------------------------------------------|
E |-7-7-7-7-7-7-7-7-------------------------------------------------|
B |-7-7-7-7-7-7-7-7-6-6-6-6-6-6-6-6-2-2-2-3-3-3-3-3-3-3-3-3-3-3-3s5-|
F#|-0-0-0-0-0-0-0-0-x-x-x-x-x-x-x-x-x-x-x-x-x-x-x-x-x-x-x-x-x-x-x---|
B |-0-0-0-0-0-0-0-0-6-6-6-6-6-6-6-6-2-2-2-3-3-3-3-3-3-3-3-3-3-3-3s5-|

Guitar 1
C#|---------------------------------------------------------------------|
G#|-6-6-6-6-6-6-6-6-----------------------------------0-----------0-----|
E |-7-7-7-7-7-7-7-7-----------------------------------3b4-4-4-4-4-4r3p0-|
B |-7-7-7-7-7-7-7-7-6-6-6-6-6-6-6-6-2-2-2-3-3-3-3-3-3-------------------|
F#|-0-0-0-0-0-0-0-0-x-x-x-x-x-x-x-x-x-x-x-x-x-x-x-x-x-------------------|
B |-0-0-0-0-0-0-0-0-6-6-6-6-6-6-6-6-2-2-2-3-3-3-3-3-3-------------------|
||                                                                      |
Guitar 2                                                                |
C#|---------------------------------------------------------------------|
G#|-6-6-6-6-6-6-6-6-----------------------------------0-----------0-----|
E |-7-7-7-7-7-7-7-7-----------------------------------3b4-4-4-4-4-4r3p0-|
B |-7-7-7-7-7-7-7-7-6-6-6-6-6-6-6-6-7-7-7-7-7-7-7-7-7-------------------|
F#|-0-0-0-0-0-0-0-0-x-x-x-x-x-x-x-x-x-x-x-x-x-x-x-x-x-------------------|
B |-0-0-0-0-0-0-0-0-6-6-6-6-6-6-6-6-7-7-7-7-7-7-7-7-7-------------------|

Both Guitars
C#|-----------------------------------------------------------------|
G#|-6-6-6-6-6-6-6-6-------------------------------------------------|
E |-7-7-7-7-7-7-7-7-------------------------------------------------|
B |-7-7-7-7-7-7-7-7-6-6-6-6-6-6-6-6-2-2-2-3-3-3-3-3-3-3-3-3-3-3-3s5-|
F#|-0-0-0-0-0-0-0-0-x-x-x-x-x-x-x-x-x-x-x-x-x-x-x-x-x-x-x-x-x-x-x---|
B |-0-0-0-0-0-0-0-0-6-6-6-6-6-6-6-6-2-2-2-3-3-3-3-3-3-3-3-3-3-3-3s5-|

Guitar 1
C#|---------------------------------------------------------------------|
G#|-6-6-6-6-6-6-6-6-----------------------------------0-----------0-----|
E |-7-7-7-7-7-7-7-7-----------------------------------3b4-4-4-4-4-4r3p0-|
B |-7-7-7-7-7-7-7-7-6-6-6-6-6-6-6-6-2-2-2-3-3-3-3-3-3-------------------|
F#|-0-0-0-0-0-0-0-0-x-x-x-x-x-x-x-x-x-x-x-x-x-x-x-x-x-------------------|
B |-0-0-0-0-0-0-0-0-6-6-6-6-6-6-6-6-2-2-2-3-3-3-3-3-3-------------------|
||                                                                      |
Guitar 2                                                                |
C#|---------------------------------------------------------------------|
G#|-6-6-6-6-6-6-6-6-----------------------------------0-----------0-----|
E |-7-7-7-7-7-7-7-7-----------------------------------3b4-4-4-4-4-4r3p0-|
B |-7-7-7-7-7-7-7-7-6-6-6-6-6-6-6-6-7-7-7-7-7-7-7-7-7-------------------|
F#|-0-0-0-0-0-0-0-0-x-x-x-x-x-x-x-x-x-x-x-x-x-x-x-x-x-------------------|
B |-0-0-0-0-0-0-0-0-6-6-6-6-6-6-6-6-7-7-7-7-7-7-7-7-7-------------------|

[SECTION 3]

Both Guitars
C#|---------------------------------------------------|
G#|-------------------------------------0---0-0-------|
E |-------------------------------------3b4-4-4-------|
B |-3s2---2s1---1s2---2s3---3s2---2s1-----------------|
F#|-x---0-x---0-x---0-x---0-x---0-x---0---------0-0-0-|
B |-3s2-0-2s1-0-1s2-0-2s3-0-3s2-0-2s1-0---------0-0-0-|
        .     .     .     .     .     .         . . . 

C#|-------------------------------------------------------------------------------------|
G#|-------------------------------------------------------------------------------------|
E |-------------------------------------------------------------------------------------|
B |-3s2---2s1---1s2---2s3---3s2---2s1---6-6-6-------6-6-6-------------6-6-6-------6-6-6-|
F#|-x---0-x---0-x---0-x---0-x---0-x---0-x-x-x-0-0-0-x-x-x-0-0-0-0-0-0-x-x-x-0-0-0-x-x-x-|
B |-3s2-0-2s1-0-1s2-0-2s3-0-3s2-0-2s1-0-6-6-6-0-0-0-6-6-6-0-0-0-0-0-0-6-6-6-0-0-0-6-6-6-|
        .     .     .     .     .     .       . . .       . . . . . .       . . .

[SECTION 4]

Guitar 1
C#|----------------------------------------------------------------|
G#|---------------------6-6----------------------------------------|
E |---------------------7-7---7s8-5s7------------------------------|
B |---------------------7-7---x---x-----6--6---6--6---6--6---6-6-6-|
F#|-------/5-6--------------0-5s6-3s5-0-x--x-0-x--x-0-x--x-0-x-x-x-|
B |-0-6-0------0-/5-6-0-----0---------0-6--6-0-6--6-0-6--6-0-6-6-6-|
||                          .         .      .      .      .       |
Guitar 2                                                           |
C#|----------------------------------------------------------------|
G#|---------------------6-6----------------------------------------|
E |---------------------7-7---7s8-5s7------------------------------|
B |-0-------------------7-7---x---x-----6--6---6--6---6--6---6-6-6-|
F#|-0-----------------------0-5s6-3s5-0-x--x-0-x--x-0-x--x-0-x-x-x-|
B |-0-----------------------0---------0-6--6-0-6--6-0-6--6-0-6-6-6-|
                            .         .      .      .      .
Both Guitars
C#|---------------------------------------------------------------------|
G#|-------------------6-6-----------------------------------------------|
E |-------------------7-7---7s8-5s7-------------------------------------|
B |----------------6--7-7---x---x---------------------------------------|
F#|-------/5-6-5-0-x------0-5s6-3s5-------------------------------------|
B |-0-6-0----------6------0---------66666666-33333333-55555555-22222222-|
                          .

C#|------------------------------|
G#|------------------------------|
E |------------------------------|
B |----------------------------2-|
F#|----------------------------2-|
B |-66666666-33333333-55555555-2-|

[SECTION 2B]

Guitar 1
C#|-----------------------------------------------------------------|
G#|-6-6-6-6-6-6-6-6-------------------------------------------------|
E |-7-7-7-7-7-7-7-7-------------------------------------------------|
B |-7-7-7-7-7-7-7-7-6-6-6-6-6-6-6-6-2-2-2-3-3-3-3-3-3-3-3-3-3-3-3s5-|
F#|-0-0-0-0-0-0-0-0-x-x-x-x-x-x-x-x-x-x-x-x-x-x-x-x-x-x-x-x-x-x-x---|
B |-0-0-0-0-0-0-0-0-6-6-6-6-6-6-6-6-2-2-2-3-3-3-3-3-3-3-3-3-3-3-3s5-|
||                                                                  |
Guitar 2                                                            |
C#|-----------------------------------------------------------------|
G#|-6-6-6-6-6-6-6-6-------------------------------------------------|
E |-7-7-7-7-7-7-7-7-7-7-7-7-7-7-7-7---------------------------------|
B |-7-7-7-7-7-7-7-7-x-x-x-x-x-x-x-x-2-2-2-3-3-3-3-3-3-3-3-3-3-3-3s5-|
F#|-0-0-0-0-0-0-0-0-5-5-5-5-5-5-5-5-x-x-x-x-x-x-x-x-x-x-x-x-x-x-x---|
B |-0-0-0-0-0-0-0-0-----------------2-2-2-3-3-3-3-3-3-3-3-3-3-3-3s5-|

Guitar 1
C#|---------------------------------------------------------------------|
G#|-6-6-6-6-6-6-6-6-----------------------------------0-----------0-----|
E |-7-7-7-7-7-7-7-7-----------------------------------3b4-4-4-4-4-4r3p0-|
B |-7-7-7-7-7-7-7-7-6-6-6-6-6-6-6-6-2-2-2-3-3-3-3-3-3-------------------|
F#|-0-0-0-0-0-0-0-0-x-x-x-x-x-x-x-x-x-x-x-x-x-x-x-x-x-------------------|
B |-0-0-0-0-0-0-0-0-6-6-6-6-6-6-6-6-2-2-2-3-3-3-3-3-3-------------------|
||                                                                      |
Guitar 2                                                                |
C#|---------------------------------------------------------------------|
G#|-6-6-6-6-6-6-6-6-----------------------------------0-----------0-----|
E |-7-7-7-7-7-7-7-7-----------------------------------3b4-4-4-4-4-4r3p0-|
B |-7-7-7-7-7-7-7-7-6-6-6-6-6-6-6-6-7-7-7-7-7-7-7-7-7-------------------|
F#|-0-0-0-0-0-0-0-0-x-x-x-x-x-x-x-x-x-x-x-x-x-x-x-x-x-------------------|
B |-0-0-0-0-0-0-0-0-6-6-6-6-6-6-6-6-7-7-7-7-7-7-7-7-7-------------------|

Guitar 1
C#|-----------------------------------------------------------------|
G#|-6-6-6-6-6-6-6-6-------------------------------------------------|
E |-7-7-7-7-7-7-7-7-------------------------------------------------|
B |-7-7-7-7-7-7-7-7-6-6-6-6-6-6-6-6-2-2-2-3-3-3-3-3-3-3-3-3-3-3-3s5-|
F#|-0-0-0-0-0-0-0-0-x-x-x-x-x-x-x-x-x-x-x-x-x-x-x-x-x-x-x-x-x-x-x---|
B |-0-0-0-0-0-0-0-0-6-6-6-6-6-6-6-6-2-2-2-3-3-3-3-3-3-3-3-3-3-3-3s5-|
||                                                                  |
Guitar 2                                                            |
C#|-----------------------------------------------------------------|
G#|-6-6-6-6-6-6-6-6-------------------------------------------------|
E |-7-7-7-7-7-7-7-7-7-7-7-7-7-7-7-7---------------------------------|
B |-7-7-7-7-7-7-7-7-x-x-x-x-x-x-x-x-2-2-2-3-3-3-3-3-3-3-3-3-3-3-3s5-|
F#|-0-0-0-0-0-0-0-0-5-5-5-5-5-5-5-5-x-x-x-x-x-x-x-x-x-x-x-x-x-x-x---|
B |-0-0-0-0-0-0-0-0-----------------2-2-2-3-3-3-3-3-3-3-3-3-3-3-3s5-|

Guitar 1
C#|---------------------------------------------------------------------|
G#|-6-6-6-6-6-6-6-6-----------------------------------0-----------0-----|
E |-7-7-7-7-7-7-7-7-----------------------------------3b4-4-4-4-4-4r3p0-|
B |-7-7-7-7-7-7-7-7-6-6-6-6-6-6-6-6-2-2-2-3-3-3-3-3-3-------------------|
F#|-0-0-0-0-0-0-0-0-x-x-x-x-x-x-x-x-x-x-x-x-x-x-x-x-x-------------------|
B |-0-0-0-0-0-0-0-0-6-6-6-6-6-6-6-6-2-2-2-3-3-3-3-3-3-------------------|
||                                                                      |
Guitar 2                                                                |
C#|---------------------------------------------------------------------|
G#|-6-6-6-6-6-6-6-6-----------------------------------0-----------0-----|
E |-7-7-7-7-7-7-7-7-----------------------------------3b4-4-4-4-4-4r3p0-|
B |-7-7-7-7-7-7-7-7-6-6-6-6-6-6-6-6-7-7-7-7-7-7-7-7-7-------------------|
F#|-0-0-0-0-0-0-0-0-x-x-x-x-x-x-x-x-x-x-x-x-x-x-x-x-x-------------------|
B |-0-0-0-0-0-0-0-0-6-6-6-6-6-6-6-6-7-7-7-7-7-7-7-7-7-------------------|

[SECTION 3B]

Both Guitars
C#|---------------------------------------------------|
G#|-------------------------------------0---0-0-------|
E |-------------------------------------3b4-4-4-------|
B |-3s2---2s1---1s2---2s3---3s2---2s1-----------------|
F#|-x---0-x---0-x---0-x---0-x---0-x---0---------0-0-0-|
B |-3s2-0-2s1-0-1s2-0-2s3-0-3s2-0-2s1-0---------0-0-0-|
        .     .     .     .     .     .         . . . 

C#|-------------------------------------------------------------------------------------|
G#|-------------------------------------------------------------------------------------|
E |-------------------------------------------------------------------------------------|
B |-3s2---2s1---1s2---2s3---3s2---2s1---6-6-6-------6-6-6-------6-6-6-------6-6-6-------|
F#|-x---0-x---0-x---0-x---0-x---0-x---0-x-x-x-0-0-0-x-x-x-0-0-0-x-x-x-0-0-0-x-x-x-0-0-0-|
B |-3s2-0-2s1-0-1s2-0-2s3-0-3s2-0-2s1-0-6-6-6-0-0-0-6-6-6-0-0-0-6-6-6-0-0-0-6-6-6-0-0-0-|
        .     .     .     .     .     .       . . .       . . .       . . .       . . .

C#|-------------------------------------------------|
G#|-------------------------------------------------|
E |-------------------------------------------------|
B |-6-6-6-------6-6-6-------6-6-6-------------------|
F#|-x-x-x-0-0-0-x-x-x-0-0-0-x-x-x-0-000-0-0-0-0-0-0-|
B |-6-6-6-0-0-0-6-6-6-0-0-0-6-6-6-0-000-0-0-0-0-0-0-|
          . . .       . . .       . ... . . . . . .

C#|-------------------------------------------------|
G#|-------------------------------------------------|
E |-------------------------------------------------|
B |-6-6-6-------6-6-6-------6-6-6-------------------|
F#|-x-x-x-0-0-0-x-x-x-0-0-0-x-x-x-0-0-0-0-0-0-0-0-0-|
B |-6-6-6-0-0-0-6-6-6-0-0-0-6-6-6-0-0-0-0-0-0-0-0-0-|
          . . .       . . .       . . . . . . . . .

Guitar 1
C#|-------------------------------------------------|
G#|-------------------------------------------------|
E |-------------------------------------------------|
B |-6-6-6-------6-6-6-------6-6-6-------------------|x2
F#|-x-x-x-0-0-0-x-x-x-0-0-0-x-x-x-0-0-0-0-0-0-0-0-0-|
B |-6-6-6-0-0-0-6-6-6-0-0-0-6-6-6-0-0-0-0-0-0-0-0-0-|
||        . . .       . . .       . . . . . . . . . |
Guitar 2                                            |
C#|-------------------------------------------------|
G#|-------------------------------------------------|
E |-------------------------------------------------|
B |-9-9-9-------9-9-9-------9-9-9-------------------|x2
F#|-x-x-x-0-0-0-x-x-x-0-0-0-x-x-x-0-0-0-0-0-0-0-0-0-|
B |-9-9-9-0-0-0-9-9-9-0-0-0-9-9-9-0-0-0-0-0-0-0-0-0-|
          . . .       . . .       . . . . . . . . .            
Submit corrections


        Death Is A Living Partner  lessons Hard to play? Try these video lessons and learn fast Death Is A Living Partner  lessons
        
↑ Back to top | Tablatures and chords for acoustic guitar and electric guitar, ukulele, drums are parodies/interpretations of the original songs. You may use it for private study, scholarship, research or language learning purposes only