» » »

Norma Jean - Birth Of The Anti Mother Tabs

Artists:  A B C D E F G H I J K L M N O P Q R S T U V W X Y Z # 

Birth Of The Anti Mother Tabs

(ver. 1) Click to play this song!
Norma Jean
 Rating:
4.4/5 (7 votes)

 Birth Of The Anti Mother  lessons Tabs too difficult? Try these video lessons and learn fast
 
                SECTION 1
Guitar 1
Eb|--------------------------------------|
Bb|--------------------------------------|
Gb|-88888888888888888888888888888--------|
Db|-xxxxxxxxxxxxxxxxxxxxxxxxxxxxx--------|
Ab|-66666666666666666666666666666--------|
Db|--------------------------------------|
||
Guitar 2
Eb|--------------------------------------|
Bb|------------------------7b---------7b-|
Gb|-8888888888888888-------7b---------7b-|
Db|-xxxxxxxxxxxxxxxx-6--9------0-6--9----|
Ab|-6666666666666666-6--9------0-6--9----|
Db|------------------6--9------0-6--9----|

SECTION 2
Both Guitars
Eb|-----------------------------------------------------|
Bb|-------7b---------7b---------7b----------------------|
Gb|-------7b---------7b---------7b----------------------|
Db|-6--9-----0-6--9-----0-6--9------------4--4--4-44--4-|
Ab|-6--9-----0-6--9-----0-6--9------------x--x--x-xx--x-|
Db|-6--9-----0-6--9-----0-6--9-----0-6\-0-4--4--4-44--4-|

Eb|-------------------------------------------------------|
Bb|---------7b---------7b---------7b----------------------|
Gb|---------7b---------7b---------7b----------------------|
Db|-0-6--9-----0-6--9-----0-6--9------------4--4--4-44--4-|
Ab|-0-6--9-----0-6--9-----0-6--9------------x--x--x-xx--x-|
Db|-0-6--9-----0-6--9-----0-6--9-----0-6\-0-4--4--4-44--4-|

Eb|--------------------------------------------------------------------------|
Bb|---------7b---------7b---------7b-----------------------------------------|
Gb|---------7b---------7b---------7b-----------------------------------------|
Db|-0-6--9-----0-6--9-----0-6--9------------4--4--4-44--4-444--4--4-444-4-xx-|
Ab|-0-6--9-----0-6--9-----0-6--9------------x--x--x-xx--x-xxx--x--x-xxx-x-xx-|
Db|-0-6--9-----0-6--9-----0-6--9-----0-6\-0-4--4--4-44--4-444--4--4-444-4-xx-|

SECTION 3
Both Guitars
Eb|-----10----------------10----------0-|
Bb|-----10----------------10----------0-|
Gb|-----10----------------10----------0-|
Db|-----10----------------10----------0-|x2
Ab|-3/---8------------3/---8------------|
Db|-3/------0-2-2-2-0-3/------0-2-2-2---|

SECTION 4
Guitar 1
Eb|----------------------------------------------------------------------|
Bb|------------0-0-------------------------------------------------------|
Gb|------------0-0-7--7--7---7-7--7--7---7-7--7--7-----------------------|
Db|-6--9--0----0-0-6--6--6---6-6--6--6---6-6--6--6---------4--4--4-44--4-|
Ab|-6--9--0--------5--5--5---5-5--5--5---5-5--5--5---------x--x--x-xx--x-|
Db|-6--9--0-----------------------------------------0-6\-0-4--4--4-44--4-|
||
Guitar 2
Eb|----------------10-10-10--1010-10-10--1010-10-10-----------------------|
Bb|------------0-0--9--9--9---9-9--9--9---9-9--9--9-----------------------|
Gb|------------0-0--7--7--7---7-7--7--7---7-7--7--7-----------------------|
Db|-6--9--0----0-0------------------------------------------4--4--4-44--4-|
Ab|-6--9--0-------------------------------------------------x--x--x-xx--x-|
Db|-6--9--0------------------------------------------0-6\-0-4--4--4-44--4-|

Both Guitars
Eb|----------------------------------------------------------------|
Bb|-----------------7b---------7b---------7b-----------------------|
Gb|-----------------7b---------7b---------7b-----------------------|
Db|-0-6--9--0-6--9-----0-6--9-----0-6--9------------4--4--4-44--44-|
Ab|-0-6--9--0-6--9-----0-6--9-----0-6--9------------x--x--x-xx--xx-|
Db|-0-6--9--0-6--9-----0-6--9-----0-6--9-----0-6\-0-4--4--4-44--44-|

Guitar 1
Eb|-------------------------------------------------------|
Bb|---------7b---------7b---------7b----------------------|
Gb|---------7b---------7b---------7b----------------------|
Db|-0-6--9-----0-6--9-----0-6--9------------4--4--4-44--4-|
Ab|-0-6--9-----0-6--9-----0-6--9------------x--x--x-xx--x-|
Db|-0-6--9-----0-6--9-----0-6--9-----0-6\-0-4--4--4-44--4-|
||
Guitar 2
Eb|-------------------------------------------------------|
Bb|-------------------------------------------------------|
Gb|-------------------------------------------------------|
Db|---6\---------6\---------6\--------------4--4--4-44--4-|
Ab|-0-6\-------0-6\-------0-6\--------------x--x--x-xx--x-|
Db|-0-6\-------0-6\-------0-6\-------0-6\-0-4--4--4-44--4-|
    .          .          .
Both Guitars
Eb|--------------------------------------------------------------------------|
Bb|---------7b---------7b---------7b-----------------------------------------|
Gb|---------7b---------7b---------7b-----------------------------------------|
Db|-0-6--9-----0-6--9-----0-6--9------------4--4--4-44--4-444--4--4-444-4-44-|
Ab|-0-6--9-----0-6--9-----0-6--9------------x--x--x-xx--x-xxx--x--x-xxx-x-xx-|
Db|-0-6--9-----0-6--9-----0-6--9-----0-6\-0-4--4--4-44--4-444--4--4-444-4-44-|

SECTION 5
Guitar 1
Eb|--------------------------------------------------------------|
Bb|--------------------------------------------------------------|
Gb|--------------------------------------------------------------|
Db|-6--9--0-------6--9--0----------------------------------------|
Ab|-6--9--0-------6--9--0----------------------------------------|
Db|-6--9--0-------6--9--0--------guitar-noise--------------------|
||
Guitar 2
Eb|------------0-------------0------------------------------------|
Bb|------------0-------------0------------------------------------|
Gb|------------0-------------0------------------------------------|
Db|-6--9--0----0--6--9--0----0------------------------------------|
Ab|-6--9--0-------6--9--0-----------------------------------------|
Db|-6--9--0--0/---6--9--0--0/----66699900000000006669990000000000-|
                                 ................................
Guitar 1
Eb|----------------------------------|
Bb|----------------------------------|
Gb|----------------------------------|
Db|-----------------\\\\\\\\\\\\-----|
Ab|-----------------\pick\slide\-----|
Db|-----------------\\\\\\\\\\\\-----|
||
Guitar 2
Eb|----------------------------------|
Bb|----------------------------------|
Gb|----------------------------------|
Db|----------------------------------|
Ab|----------------------------------|
Db|-66699900000000006669990000000000-|
    ................................

Both Guitars
Eb|-------------------|
Bb|-------------------|
Gb|-------------------|
Db|-------------12-12-|x4
Ab|--------------9--9-|
Db|-666999000000------|

SECTION 6
Guitar 1
Eb|-----------------------------------------------------|
Bb|-----------------------------------------------------|
Gb|-9---------------------------------------------------|
Db|-9----------\\\\\\\\\\\\-----------------------------|
Ab|------------\pick\slide\-----------------------------|
Db|------------\\\\\\\\\\\\-----------------------------|
||
Guitar 2
Eb|-----------------------------------------------------|
Bb|--------------------------------7------------7b8r7-5-|
Gb|------------12b-----------------7------------7b8r7-5-|
Db|------------12---------------------------------------|
Ab|-----------------------------------0-----------------|
Db|-0-----------------------6b--0-----0-6b-0-0----------|
                                      .
SECTION 7
Both Guitars
Eb|------------------------------|
Bb|-------7b-------------7b8r7-5-|
Gb|-------7b-------------7b8r7-5-|
Db|-6--0--------6--0-0-----------|x4
Ab|-6--0------0-6--0-0-0---------|
Db|-6--0------0-6--0-0-0---------|
              .        .
SECTION 8
Both Guitars
Eb|------------------|  |---------------|
Bb|------------------|  |---------------|
Gb|------------------|  |---------------|
Db|------------------|x3|---------------|
Ab|------------------|  |---------------|
Db|-6669990000000000-|  |-6669990000000-|
    ................      ............

NOTE: From here on out, there are a lot of extra guitar noises going on
but I'm going to stick to the riffs that I can actually make out.

SECTION 9
Eb|----------------|  |----------------|
Bb|----------------|  |----------------|
Gb|----------------|  |----------------|
Db|-6--9--0--------|x4|-6--9--0--3-3-3-|x3
Ab|-6--9--0--------|  |-6--9--0--3-3-3-|
Db|-6--9--0--0-0-0-|  |-6--9--0--3-3-3-|

Guitar 1
Eb|----------------|
Bb|----------------|
Gb|----------------|
Db|-6--9--0--3-3-3-|
Ab|-6--9--0--3-3-3-|
Db|-6--9--0--3-3-3-|
||
Guitar 2
Eb|----------------|
Bb|----------------|
Gb|----------------|
Db|-6--9--0--------|
Ab|-6--9--0--------|
Db|-6--9--0--/15~--|

SECTION 10
Both Guitars
Eb|----------------|
Bb|----------------|
Gb|----------------|
Db|-6--9--0--3-3-3-|x4
Ab|-6--9--0--3-3-3-|
Db|-6--9--0--3-3-3-|

Eb|--------------------------------|
Bb|-------7b-------------7b8r7-5-\-|
Gb|-------7b-------------7b8r7-5-\-|
Db|-6--0--------6--0-0-------------|x4
Ab|-6--0------0-6--0-0-0-----------|
Db|-6--0------0-6--0-0-0-----------|
              .                    
Submit corrections


        Birth Of The Anti Mother  lessons Hard to play? Try these video lessons and learn fast Birth Of The Anti Mother  lessons
        
↑ Back to top | Tablatures and chords for acoustic guitar and electric guitar, ukulele, drums are parodies/interpretations of the original songs. You may use it for private study, scholarship, research or language learning purposes only