Home » N » Norah Jones »

Norah Jones - Not My Friend Tabs

Artists:  A B C D E F G H I J K L M N O P Q R S T U V W X Y Z # 

Not My Friend Tabs

(ver. 2) Click to play this song!
Norah Jones
Norah Jones - Not my friend


F#    : 244322
F#*   : 243322
G#    : 466544
Bm    : x24432
F#**  : 223222


Intro:
  F#                F#*               F#                F#*       
|-----------------|-----------------|-----------------|-----------------|
|-----2-------2---|-----2-------2---|-----2-------2---|-----2-------2---|
|---3---3---3---3-|---3---3---3---3-|---3---3---3---3-|---3---3---3---3-|
|-4-------4-------|-3-------3-------|-4-------4-------|-3-------3-------|
|-----------------|-----------------|-----------------|-----------------|
|-----------------|-----------------|-----------------|-----------------|


Verse:
  F#                F#*               F#                F#*
|-----------------|-----------------|-----------------|-----------------|
|-----2-------2---|-----2-------2---|-----2-------2---|-----2-------2---|
|---3---3---3---3-|---3---3---3---3-|---3---3---3---3-|---3---3---3---3-|
|-4-------4-------|-3-------3-------|-4-------4-------|-3-------3-------|
|-----------------|-----------------|-----------------|-----------------|
|-----------------|-----------------|-----------------|-----------------|

Help me breathe,
Help me believe,
You seem really glad that I am sad.


Chorus:
  G#                Bm                F#
|-----------------|-----------------|-----------------|-----------------|
|-----4-------4---|-----3-------3---|-----2-------2---|-----2-------2---|
|---5---5---5---5-|---4---4---4---4-|---3---3---3---3-|---3---3---3---3-|
|-6-------6-------|-4-------4-------|-4-------4-------|-4-------4-------|
|-----------------|-----------------|-----------------|-----------------|
|-----------------|-----------------|-----------------|-----------------|

You are not my friend,
I cannot pretend that you are.


Verse:

You made it sting,
Your voice is ringing,
Just like the boys who laughed at me in school.


Chorus:

You are not my friend,
I cannot pretend anymore.


Bridge: (2x)
  F#                F#**              F#                F#**
|-----------------|-----------------|-----------------|-----------------|
|-----2-------2---|-----2-------2---|-----2-------2---|-----2-------2---|
|---3---3---3---3-|---2---2---2---2-|---3---3---3---3-|---2---2---2---2-|
|-4-------4-------|-3-------3-------|-4-------4-------|-3-------3-------|
|-----------------|-----------------|-----------------|-----------------|
|-----------------|-----------------|-----------------|-----------------|


Chorus:

You found a place,
No one should ever go.


Verse:

I'll be ok,
'Cause when I back away,
I'm gonna keep the handle of your gun in sight.
            
Submit corrections

↑ Back to top | Tablatures and chords for acoustic guitar and electric guitar, ukulele, drums are parodies/interpretations of the original songs. You may use it for private study, scholarship, research or language learning purposes only