Home » N » None »

None - Undefined Tabs

Artists:  A B C D E F G H I J K L M N O P Q R S T U V W X Y Z # 

Undefined Tabs

(ver. 1) Click to play this song!
None
 Rating:
3.2/5 (28 votes)
                Acordes

   E              A              Bb            Db             Bb    A        E     Esus4
e|-0-0-0-2-0-0-0--0-0-0-2-0-0-0--0-0-0-4-0-0-|-0-0-0-7-0-0-0--0-0-0-0-0-0-0--0-0-0-0-0-0-|
B|-0-0-0-0-0-0-0--2-2-2-2-2-2-2--4-4-4-4-4-4-|-5-5-5-5-5-5-5--4-4-4-2-2-2-2--0-0-0-0-0-0-|
G|-1-1-1-1-1-1-1--2-2-2-2-2-2-2--4-4-4-4-4-4-|-6-6-6-6-6-6-6--4-4-4-2-2-2-2--1-1-1-2-1-1-|
D|-2-2-2-2-2-2-2--2-2-2-2-2-2-2--4-4-4-4-4-4-|-6-6-6-6-6-6-6--4-4-4-2-2-2-2--2-2-2-2-2-2-|
A|-2-2-2-2-2-2-2--0-0-0-0-0-0-0--2-2-2-2-2-2-|-0-0-0-0-0-0-0--0-0-0-0-0-0-0--2-2-2-2-2-2-|
E|-0-0-0-0-0-0-0--0-0-0-0-0-0-0--2-2-2-2-2-2-|-0-0-0-0-0-0-0--0-0-0-0-0-0-0--0-0-0-0-0-0-|
   v v ^ v ^ ^ ^  v v ^ v ^ ^ ^  v v ^ v ^ ^   v v ^ v ^ ^ ^  v v ^ v ^ ^ ^  v v ^ v ^ ^ 

Tab

   E              A              Bb            Db             Bb             E
e|-0-----2/0---0--0-----2/0---0----0---4---0-|-0-----7-----5------0-----0----------0---0-|
B|-----0--------------2---2------4---4---4---|-----5-----5----4-4---2-2---2----0------0--|
G|---1-----1--------2------------------------|---6-----6----------4----------1---1---2---|
D|-------------------------------------------|-----------------------------------------2-|
A|----------------0----0----0----2----2---2--|----------------0-----0--------------2-----|
E|-0----0----0-------------------------------|-0----0---------------------0--0--------(0)|
   v v ^ v ^ ^ ^  v v ^ v ^ ^ ^  v v ^ v ^ ^   v v ^ v ^ ^ ^  v v ^ v ^ ^ ^  v v ^ v ^ ^             
Submit corrections

↑ Back to top | Tablatures and chords for acoustic guitar and electric guitar, ukulele, drums are parodies/interpretations of the original songs. You may use it for private study, scholarship, research or language learning purposes only