Home » N » None »

None - Star Spangled Banner Tabs

Artists:  A B C D E F G H I J K L M N O P Q R S T U V W X Y Z # 

Star Spangled Banner Tabs

(ver. 1) Click to play this song!
None
 Rating:
4/5 (4 votes)
                The Star Spangled Banner (standard tuning)

e-------------0--------------------
B-----------1---3-1----------------
G—0-------0-------------0-0-0------
D---2---2-----------2-3------------
A-----3----------------------------
E----------------------------------

e-0--------------------------------
B---3-1-0---0-1-1------------------
G---------2-------0-----0-------0--
D-------------------2-----2---2----
A---------------------3-----3------
E----------------------------------

e---0---------------0--------------
B-1---3-1-------------3-1-0---0----
G-------------0-0-0---------2------
D---------2-3----------------------
A----------------------------------
E----------------------------------

e-----------0-0-0-1-3-3-1-0--------
B-1-1------------------------------
G-----0----------------------------
D-------2--------------------------
A---------3------------------------
E----------------------------------

e---0-1-1-1-0----------------------
B-3-----------3-1-0---0-1----------
G-------------------2--------------
D-------------------------2-3------
A----------------------------------
E----------------------------------

e---------------------0-1-0--------
B-----1-1-1-0-------3-------3-1----
G-0-0---------2-2-2----------------
D----------------------------------
A----------------------------------
E----------------------------------

e-------------0-1-3-----0-1--------
B-1-0-----1-3-------1-3-----3-1----
G-----0-0--------------------------
D----------------------------------
A----------------------------------
E----------------------------------
            
Submit corrections

↑ Back to top | Tablatures and chords for acoustic guitar and electric guitar, ukulele, drums are parodies/interpretations of the original songs. You may use it for private study, scholarship, research or language learning purposes only