Home » N » None »

None - Song From My Band Tabs

Artists:  A B C D E F G H I J K L M N O P Q R S T U V W X Y Z # 

Song From My Band Tabs

(ver. 1) Click to play this song!
None
 Rating:
4/5 (4 votes)
                ------------------------------------

------------------------------------

------------------------------------
                                        -------intro  x4
--7------7-------7------------------
    x4     x4      x8
--5------4-------0------------------

------------------------------------





-------------------------------------

-------------------------------------

-------------------------------------
                                       --------------pre chrous    x4
-------5----------------7------------
          x8              x8
-2-----3-------5--------5------------
   x8             x8
-0-------------3---------------------





------------------------------------

------------------------------------

------------------------------------

--4------9------5-------11-----------
                                          ---verse  x2  (palm mute)
--2------7------3-------9-----------
    x4      x4     x4     x4
--0------0------0-------0-----------





-------------------------------------

-------------------------------------

-------------------------------------
                                       -------------chrous    x3
-------5----------------7------------
          x8              x8
-2-----3-------5--------5------------
   x8             x8
-0-------------3---------------------






------------------------------------

------------------------------------

------------------------------------

--4------9------5-------11-----------
                                          ---verse x2  (palm mute)
--2------7------3-------9-----------
    x4      x4     x4     x4
--0------0------0-------0-----------






-------------------------------------

-------------------------------------

-------------------------------------
                                       -------------chrous    x3
-------5----------------7------------
          x8              x8
-2-----3-------5--------5------------
   x8             x8
-0-------------3---------------------





------------------------------------

------------------------------------

------------------------------------
                                       ------------------------bridge   x2
--6-------6-------4-----------------
    x8      x8      x12
--4-------0-------2-----------------

------------------------------------






-------------------------------------

-------------------------------------

-------------------------------------
                                       -------------chrous    x3
-------5----------------7------------
          x8              x8  let ring
-2-----3-------5--------5------------
   x8             x8
-0-------------3---------------------
            
Submit corrections

↑ Back to top | Tablatures and chords for acoustic guitar and electric guitar, ukulele, drums are parodies/interpretations of the original songs. You may use it for private study, scholarship, research or language learning purposes only