Home » N » None »

None - A Random Ska Tabs

Artists:  A B C D E F G H I J K L M N O P Q R S T U V W X Y Z # 

A Random Ska Tabs

(ver. 1) Click to play this song!
None
 Rating:
4/5 (4 votes)
                (Riff)
this is the first tab i've posted on here, sorry if the layout sucks. this is a kinda cool ska riff i just wrote as the moment took me, and its played fairly fast but with rhythm. hope you like it :)

E:-----------------------------------------------------3\1-1-1-1----------------------|
B:---3-5-3-----------------3-5-3---3-3-------------3-5----------------3-5-3-----------|
G:5--------5------------5--------5------5-4-----5------------------5--------4-5/12----|
D:-----------3-3-3-3------------------------------------------------------------------|
A:------------------------------------------------------------------------------------|
E:------------------------------------------------------------------------------------|

E:------------------------------------------------------------------------10/8-8-8-8----------------------------------|
B:----10-12-10-----------------------10-12-10----10-10--------------10-12------------------10-12-10-------------------|
G:12-----------12----------------12-----------12-------12-11----12---------------------12-----------11-12\slide-down--|
D:----------------10-10-10-10-----------------------------------------------------------------------------------------|
A:--------------------------------------------------------------------------------------------------------------------|
E:--------------------------------------------------------------------------------------------------------------------|
            
Submit corrections

↑ Back to top | Tablatures and chords for acoustic guitar and electric guitar, ukulele, drums are parodies/interpretations of the original songs. You may use it for private study, scholarship, research or language learning purposes only