» » »

None - Amazing Grace Tabs

Artists:  A B C D E F G H I J K L M N O P Q R S T U V W X Y Z # 

Amazing Grace Tabs

(ver. 1) Click to play this song!
None
 Rating:
4/5 (4 votes)

 Amazing Grace lessons Tabs too difficult? Try these video lessons and learn fast
 
                Normal tuning
submitted by Fitzy Cent

E-------------------------------------------------------------------------
B----------------0--0-------------------------------------0--0----3-------
G--------0------------------2--0-----------------------0-------2----------
D-0--------------------------------------2---0------0---------------------
A-------------------------------------------------------------------------
E-------------------------------------------------------------------------

E-------------------------------------------------------------------------
B-0-3-0--------------0--0-------------------------------------------------
G------0-0---------0----2-0----------------------------------------------
D-------2-2-0----0------------------------------------------------------
A-------------------------------------------------------------------------
E-------------------------------------------------------------------------
            
Submit corrections


        Amazing Grace lessons Hard to play? Try these video lessons and learn fast Amazing Grace lessons
        
↑ Back to top | Tablatures and chords for acoustic guitar and electric guitar, ukulele, drums are parodies/interpretations of the original songs. You may use it for private study, scholarship, research or language learning purposes only