Home » N » Nomy »

Nomy - Psychopath Tabs

Artists:  A B C D E F G H I J K L M N O P Q R S T U V W X Y Z # 

Psychopath Tabs

(ver. 1) Click to play this song!
Nomy
Tuning: C G C F A D

I know, its not 100%, but for me it sounds pretty good.

Intro:
D|------------------------------------------------------|
A|------------------------------------------------------|
F|------------------------------------------------------|
C|------------------------------------------------------|
G|------------------------------------------------------|
C|-00000-000-0-00-0-0000-000-0-00-----------------------|
   ***** *** * ** * **** *** * **
Lead 1:
D|-----------------------------------------------------------------|
A|-----------------------------------------------------------------|
F|-7tp/15tp\10tp/12tp-(2x)--7tp/15tp\12tp\10tp---7tp/12tp\10tp\9tp-|
C|-----------------------------------------------------------------|
G|-----------------------------------------------------------------|
C|-----------------------------------------------------------------|

Lead 2:
D|-3-----3---6--6--6--6---8--8--8--8---10--10--10-------|
A|---3----3----6--6--6--6---8--8--8--8---10--10--10-----|
F|------------------------------------------------------|
C|------------------------------------------------------|
G|------------------------------------------------------|
C|------------------------------------------------------|

Lead 3:
D|---------------------------------|
A|---------------------------------|
F|-----15tp\10tp/12tp--------------|
C|---------------------------------|
G|---------------------------------|
C|---------------------------------|

Main Guitar:
D|------------------------------------------------------|
A|------------------------------------------------------|
F|---------------3--------------------------------------|
c|-0-------------3--------------3------------5----------|
G|-0-------------1--------------3------------5----------|
C|-0----------------------------3------------5----------|

Riff:
D|------------------------------------------------------|
A|------------------------------------------------------|
F|------------------------------------------------------|
C|-0-0---------0---------0-0---------0------------------|
G|-0-0---------0---------0-0---------0------------------|
C|-0-0-0-0-3b4-0-0-0-3b4-0-0-0-0-3b4-0-0000-------------|
       P P       P P         P P       PPPP

D|--------------------------------------------------|
A|--------------------------------------------------|
F|--------------------------------------------------|
C|-0-0---------0---------0-0-----3------------------|
G|-0-0---------0---------0-0-----3------------------|
C|-0-0-0-0-3b4-0-0-0-3b4-0-0-0-0-3------------------|
       P P       P P         P P       

Main Guitar 2
D|------------------------------------------------------|
A|------------------------------------------------------|
F|------------------------------------------------------|
C|-0-0-(12)(12)(12)(12)(12)(12)(12)(12)-----------------|
G|-0-0--------------------------------------------------|
C|-0-0--------------------------------------------------|

Outro
D|------------------------------------------|
A|------------------------------------------|
F|----------3-------------------------------|
c|-0-0------3-------3-------5-------0-------|
G|-0-0------1-------3-------5-------0-------|
C|-0-0--------------3-------5-------0-------|


Order:
Intro (2x)
Lead 1 
Main Guitar
Lead 2
Metalriff
Lead 1 (2x)
Main Guitar
Lead 2 (2x)
Lead 1 (2x)
Main Guitar 2 (2x) 
Main Guitar 2 continues (3x)| Meanwhile: Lead 3 (3x)
Lead 1 (4x)
Outro            
Submit corrections

↑ Back to top | Tablatures and chords for acoustic guitar and electric guitar, ukulele, drums are parodies/interpretations of the original songs. You may use it for private study, scholarship, research or language learning purposes only