Home » N » Nomy »

Nomy - Cocaine Tabs

Artists:  A B C D E F G H I J K L M N O P Q R S T U V W X Y Z # 

Cocaine Tabs

(ver. 1) Click to play this song!
Nomy
----------------------------------------------------------------------------
                             SONG NAME - Band Name
----------------------------------------------------------------------------

I THINK IT GOES LIKE THIS BUT IM NOT SURE. THIS IS MY FIRST.

Tuning: EADGBe (standard)                        4h66
0:00 - 0:13 min. PLAY THE WHOLE PART MUTED EXEPT:4h66.....
e|-------------------------------------------------------------------------|
B|-------------------------------------------------------------------------|
G|-6-6---------------------------------------------------------------------|
D|-6-6---------------------------------------------------------------------|
A|-4-4-4-4-4-4-4-4-4-4-4-4-4-4-7-7-7-7-7-7-7-7-7-7-7-7-7-7-7-7-------------|
E|-------------------------------------------------------------7-7-7-7-7-7-|

e|-------------------------------------------------------------------------|
B|-------------------------------------------------------------------------|
G|-------------------------------------------------------------------------|
D|------------------------------------------------------4h66-6-4-4h6-6\----|
A|---------------------4-4-4-4-4-4-4-4-4-4-4-4-4-4-4-4--4h66-6-4-4h6-6\----|
E|-7-7-7-7-7-7-7-7-7-7-----------------------------------------------------|

0:14 - 0:26 min. BASS PART WITHOUT LYRICS. GUITAR PLAYS THIS:
e|-------------------------------------------------------------------------|
B|-------------------------------------------------------------------------|
G|-6-6-6-6-6-6-6-9-9-9-9-9-9-9---------------------------------------------|
D|-6-6-6-6-6-6-6-9-9-9-9-9-9-9-4-4-4-4-4-4-4---6---9-----------------------|
A|-4-4-4-4-4-4-4-7-7-7-7-7-7-7-4-4-4-4-4-4-4---6---9-----------------------|
E|-----------------------------2-2-2-2-2-2-2---4---7-----------------------|

e|-------------------------------------------------------------------------|
B|-------------------------------------------------------------------------|
G|-6-6-6-6-6-6-6-9-9-9-9-9-9-9-------------------------6-6-----------------|
D|-6-6-6-6-6-6-6-9-9-9-9-9-9-9-4-4-4-4-4-4-4-6-6-6-9---6-6-----------------|
A|-4-4-4-4-4-4-4-7-7-7-7-7-7-7-4-4-4-4-4-4-4-6-6-6-7-9-4-4-----------------|
E|-----------------------------2-2-2-2-2-2-2-4-4-4---7---------------------|

0:27 - 0:37 min. MUTED
e|-------------------------------------------------------------------------|
B|-------------------------------------------------------------------------|
G|-------------------------------------------------------------------------|
D|-------------------------------------------------------------------------|
A|-4-4-4-4-4-4-4-4-4-4-4-4-4-4-7-7-7-7-7-7-7-7-7-7-7-7-7-7-7-7-------------|
E|-------------------------------------------------------------7-7-7-7-7-7-|

e|-------------------------------------------------------------------------|
B|-------------------------------------------------------------------------|
G|-------------------------------------------------------------------------|
D|-------------------------------------------------------------------------|
A|---------------------4-4-4-4-4-4-4-4-4-4-4-4-4-4-4-4---------------------|
E|-7-7-7-7-7-7-7-7-7-7-----------------------------------------------------|

0:38 - 0:48 min. MUTED
e|-------------------------------------------------------------------------|
B|-------------------------------------------------------------------------|
G|-------------------------------------------------------------------------|
D|-------------------------------------------------------------------------|
A|-4-4-4-4-4-4-4-4-4-4-4-4-4-4-7-7-7-7-7-7-7-7-7-7-7-7-7-7-7-7-------------|
E|-------------------------------------------------------------7-7-7-7-7-7-|

e|-------------------------------------------------------------------------|
B|-------------------------------------------------------------------------|
G|-------------------------------------------------------------------------|
D|-------------------------------------------------------------------------|
A|---------------------4-4-4-4-4-4-4-4-4-4-4-4-4-4-4-4---------------------|
E|-7-7-7-7-7-7-7-7-7-7-----------------------------------------------------|

                            4h66
0:49 - 1:01 min MUTED EXEPT:4h66.....
e|-------------------------------------------------------------------------|
B|-------------------------------------------------------------------------|
G|-------------------------------------------------------------------------|
D|-------------------------------------------------------------------------|
A|-4-4-4-4-4-4-4-4-4-4-4-4-4-4-7-7-7-7-7-7-7-7-7-7-7-7-7-7-7-7-------------|
E|-------------------------------------------------------------7-7-7-7-7-7-|

e|-------------------------------------------------------------------------|
B|-------------------------------------------------------------------------|
G|-------------------------------------------------------------------------|
D|-----------------6-6-6-6-6-9-9-9-9-9--4h66-6-4-4h6-6\--------------------|
A|-----------------4-4-4-4-4-7-7-7-7-7--4h66-6-4-4h6-6\--------------------|
E|-7-2-2-2-2-2-2-2---------------------------------------------------------|

1:02 - 1:34
e|-------------------------------------------------------------------------|
B|-------------------------------------------------------------------------|
G|-6-6-6-6---------9-9-9-9---------6-6-6-6---------9-9-9-9-----------------|
D|-6-6-6-6-7-7-7-7-9-9-9-9-9-9-9-9-6-6-6-6-7-7-7-7-9-9-9-9-9-9-9-9---------|
A|-4-4-4-4-7-7-7-7-7-7-7-7-9-9-9-7-4-4-4-4-7-7-7-7-7-7-7-7-9-9-9-9---------|
E|---------5-5-5-5---------7-7-7-7---------5-5-5-5---------7-9-9-9---------|

e|-------------------------------------------------------------------------|
B|-------------------------------------------------------------------------|
G|-6-6-6-6---------9-9-9-9---------6-6-6-6---------9-9-9-9-----------------|
D|-6-6-6-6-7-7-7-7-9-9-9-9-9-9-9-9-6-6-6-6-7-7-7-7-9-9-9-9-9-9-9-9---------|
A|-4-4-4-4-7-7-7-7-7-7-7-7-9-9-9-7-4-4-4-4-7-7-7-7-7-7-7-7-9-9-9-9---------|
E|---------5-5-5-5---------7-7-7-7---------5-5-5-5---------7-7-7-7---------|


e|-------------------------------------------------------------------------|
B|-------------------------------------------------------------------------|
G|-----------------9-9-9-9-------------------------9-9-9-9-----------------|
D|-7-7-7-7-4-4-4-4-9-9-9-9-9-9-9-9-7-7-7-7-4-4-4-4-9-9-9-9-9-9-9-9---------|
A|-7-7-7-7-4-4-4-4-7-7-7-7-9-9-9-9-7-7-7-7-4-4-4-4-7-7-7-7-9-9-9-9---------|
E|-5-5-5-5-2-2-2-2---------7-7-7-7-5-5-5-5-2-2-2-2---------7-7-7-7---------|

AND THEN IT GOES ON LIKE THIS. BUT NOW YOU KNOW THE MAIN RIFFS SO HAVE FUN
// EpiphoneVicke

| /  slide up
| \  slide down
| h  hammer-on
| p  pull-off
| ~  vibrato
| +  harmonic
| x  Mute note
============================================================================
            
Submit corrections

↑ Back to top | Tablatures and chords for acoustic guitar and electric guitar, ukulele, drums are parodies/interpretations of the original songs. You may use it for private study, scholarship, research or language learning purposes only