Home » N » Nomy »

Nomy - Freakshow Part 1 Tabs

Artists:  A B C D E F G H I J K L M N O P Q R S T U V W X Y Z # 

Freakshow Part 1 Tabs

(ver. 1) Click to play this song!
Nomy
Intro
E----------------------------------------------------------------------|
B-----------------------1-0----1-0------1-0----1-0-----------1---3-----|
G---------0---0------------------------------------------2-------------|
D----2-5----4---0---2----------------------------------2-------------2-|
A-----------------3-----------3--------2-------------0-----0---0-----2-|
E-0----------------------------------3--------3--------------------3-0-|

                                  (I dont think that last part is right, so if you know
Verse 1                           how to play this, youre welcome to write a comment)
e----------------------------------------------------|
B-------3--------3-0------------------------1/3------|
G-----0-----------------------0---------2------------|
D---2----------2----------0-----------2---2----------|
A------------3--------------2-------0----------------|
E-0---------------------3----------------------------|
Verse 2
e----------------------------------------------------------------------------------------|
B---------3---------3------------1----------1------------0--------0-------0--------1-----|
G------0---------0------------0----------0------------0--------0------------2--------2---|
D---2----------2------------2----------2--------------------------------2--------2-------|
A------------------------3----------3---------------2---------2-------0--------0---------|
E-0----------0------------------------------------3----------3---------------------------|
So welcome to my         This is who I am,        A part of me is     In emptynes I
Freakshow,                                        Empty,              stand

Bridge:
Em     G                  C
I cant sleep, 'cause they scream in my head


Chorus: Em G C D (Strummed, listen to the song to get the strumming pattern)
            
Submit corrections

↑ Back to top | Tablatures and chords for acoustic guitar and electric guitar, ukulele, drums are parodies/interpretations of the original songs. You may use it for private study, scholarship, research or language learning purposes only