» » »

No Doubt - Simple Kind Of Life Tabs

Artists:  A B C D E F G H I J K L M N O P Q R S T U V W X Y Z # 

Simple Kind Of Life Tabs

(ver. 2) Click to play this song!
No Doubt
 Rating:
4/5 (4 votes)

 Simple Kind Of Life lessons Tabs too difficult? Try these video lessons and learn fast
 
                This song is a great song by no doubt and any guitarist that knows this song should know how to play it...

"Simple Kind of Life"
written by Gwen Stefani

I am going to write it out in chords so you can follow along with the singing.And i will display the chords out before hand so you know how to play them.

CHORDS YOU NEED TO PLAY LIKE TOM!

   
       Weird D    D    Cadd2*     C    Cdrop3*   F  Fm                             E------0-------2-------0-------0-------0------1-------1-
B------3-------3-------3-------1-------0------1-------1-
G------2-------2-------0-------0-------0------2-------1-
D------0-------0-------2-------2-------2------3-------3-
A----------------------3-------3-------3------3-------3-
E---------------------------------------------1-------1-


INTRO/VERSE 1

Dsus2     D      Cadd2      C (play once for intro)

Dsus2       D               Cadd2       C
For a long  time, I was in  love....
Not only in love, I was     obsessed...
With a      friendship that no one else could touch

Dsus2     D               Cadd2                                                     It didn't work out, I'm covered in shells

CHORUS

C                                  F            Fm                Cdrop3*
And all I wanted was the simple things, a simple kind of life
And all I needed was a   simple man,    so I could be a wife

Everything is the same up until the bridge...


BRIDGE

e--------0------1------0------0----------------------------------
B------2------2------3------0------------------------------------
G----3------2------2------1--------------------------------------
D----------------------------------------------------------------
A----------------------------------------------------------------
E----------------------------------------------------------------

That's it baby!!
            
Submit corrections


        Simple Kind Of Life lessons Hard to play? Try these video lessons and learn fast Simple Kind Of Life lessons
        
↑ Back to top | Tablatures and chords for acoustic guitar and electric guitar, ukulele, drums are parodies/interpretations of the original songs. You may use it for private study, scholarship, research or language learning purposes only