» » »

No Doubt - Just A Girl Tabs

Artists:  A B C D E F G H I J K L M N O P Q R S T U V W X Y Z # 

Just A Girl Tabs

(ver. 1) Click to play this song!
No Doubt
 Rating:
4/5 (4 votes)

 Just A Girl lessons Tabs too difficult? Try these video lessons and learn fast
 
                Intro: (Moderately Fast Rock: tempo = 108)
 Gtr. 1 (electric w/ light dist.)

e|----------------------------------------------------------------------|
B|*---------------------------------------------------------------------|
G|---------2--------------------------------------------2---------------|
D|---------0----------0----------0---------2------------0----------0----|
A|*---5---------2--2-------1--1-------0------------5---------2--2-------|
E|----------------------------------------------------------------------|

e|-----------------------|
B|----------------------*|
G|-----------------------|
D|-------0---------2-----|
A|-1--1-------0---------*|
E|-----------------------|

 Riff 1                         End Riff 1
e|---------------------------------------|    
B|---------------------------------------|    
G|--------2------------------------------|    Play Riff1 seven times
through
D|--------0---------0---------0-------2--|    verse 1, then end with Riff
2.
A|----5-------2--2------1--1------0------|
E|---------------------------------------|

 Riff 2                         End Riff 2
e|---------------------------------------|
B|---------------------------------------|
G|------2--------------------------------|
D|-------------0-------0-------2---------|
A|--5------2-------1-------0-------------|
E|---------------------------------------|

 Chorus
          Bm              A                   G5   G                A5
e|--------7---7--7--7--7------5---5--5--5--5-------3----3--3--3--3-----|
B|--------7---7--7--7--7------5---5--5--5--5-------3----3--3--3--3-----|
G|--------7---7--7--7--7--6---6---6--6--6--6-------4----4--4--4--4-----|
D|--------9---9--9--9--9--7---7---7--7--7--7--5----5----5--5--5--5--7--|
A|--------9---9--9--9--9--7---7---7--7--7--7--5----5----5--5--5--5--7--|
E|--5/7---7---7--7--7--7--5---5---5--5--5--5--3----3----3--3--3--3--5--|

     A                  B5
e|---5----5--5--5--5--------|
B|---5----5--5--5--5--------|  The Chorus repeats 3 times, with slight
G|---6----6--6--6--6--------|  strumming variations, listen to the CD
D|---7----7--7--7--7----9---|  for that.
A|---7----7--7--7--7----9---|
E|---5----5--5--5--5----7---|

 Fill 3  (all downstrokes)
    G5                                             C5
e|---------------------------------------------------------------------|
B|---------------------------------------------------------------------|
G|---------------------------------------------------------------------|
D|---------------------------------------------------------------------|
A|--5---5--5--5--5--5--5--5--5--5--5--5--5--5--5--/10---10--10--10--10-|
E|--3---3--3--3--3--3--3--3--3--3--3--3--3--3--3--/-8----8---8---8---8-|

 Fill 3 (cont.)

e|------------------------------------------|
B|------------------------------------------|  After playing Fill 3, play
G|------------------------------------------|  Fill 1 twice.
D|----------10--10--10--10--10--10--10--10--|
A|--10--10--10--10--10--10--10--10--10--10--|
E|---8---8---8---8---8---8---8---8---8---8--|

 Interlude   (play notes in parentheses 2nd time through.)

e|---------------------------------------------------------------------|
B|*--------3--2------------------------------------------3--2----------|
G|------4--------4-(2)--------------------------------4--------4-------|
D|---4----------------4--2------0--2------4--------4--------------4--2-|
A|*--------------------------------------------------------------------|
E|---------------------------------------------------------------------|

 Interlude (cont.)

e|-------------------------------|
B|------------------------------*|   Play this twice, then go back to
G|-------------------------------|   Riff 3 once, then on to the Chorus.
D|-----(2)----0--2------4--------|
A|--------------------------2---*|
E|-------------------------------|

 Outro:   (all downstrokes)
     G5                                              C5
e|---------------------------------------------------------------------|
B|*--------------------------------------------------------------------|
G|---------------------------------------------------------------------|
D|---------------------------------------------------------------------|
A|*--5----5--5--5--5--5--5--5--5--5--5--5--5--5--5--/10----10--10--10--|
E|---3----3--3--3--3--3--3--3--3--3--3--3--3--3--3--/-8-----8---8---8--|

 Outro (cont.)

e|-----------------------------------------------|
B|----------------------------------------------*|  
G|-----------------------------------------------|  For the Outro play
that
D|-----------------------------------------------|  twice, then:
A|--10--10--10--10--10--10--10--10--10--10--10--*|
E|---8---8---8---8---8---8---8---8---8---8---8---|

 Outro (cont.)                                                   Fade Out
      G                                    C5                 Bm
e|------------------------------------------------------------7---------|
B|------------------------------------------------------------7---------|
G|----4------4------4----4----4----4--------------------------7---------|
D|----5------5------5----5----5----5-------10-----------------9---------|
A|----5------5------5----5----5----5-------10-----------------9---------|
E|----3------3------3----3----3----3--------8-----------------7---------|


  There Ya Go. Questions, Comments, Corrections, Requests, e-mail me.
            
Submit corrections


        Just A Girl lessons Hard to play? Try these video lessons and learn fast Just A Girl lessons
        
↑ Back to top | Tablatures and chords for acoustic guitar and electric guitar, ukulele, drums are parodies/interpretations of the original songs. You may use it for private study, scholarship, research or language learning purposes only