» » »

No Doubt - Ex Girlfriend Tabs

Artists:  A B C D E F G H I J K L M N O P Q R S T U V W X Y Z # 

Ex Girlfriend Tabs

(ver. 2) Click to play this song!
No Doubt
 Rating:
4/5 (8 votes)

 Ex Girlfriend lessons Tabs too difficult? Try these video lessons and learn fast
 
                

SongTitle: ex-girlfriend

-8--7--5--3--2--0---------------
10--8--7--5--4-----4--1----------
----------------5--4--2------
--------------------------
--------------------------
--------------------------

chorus- guitar 1
-----------------------------------
-----------------------------------
-----------------------------------
-2-xx--9-xx-10---4-xx-10-xx--9-----
-2-xx--9-xx-10---4-xx-10-xx--9-----
-0-xx--7-xx--8---2-xx--8-xx--7-----

chorus -guitar 2

---------------------
-5---55-5------------
---4------4---------- play this repeatedly until....
---------------------
---------------------
---------------------

"Im another ex-girlfriend on your list....."

------------------- then riff A
-5---5---4---4-----
---4---4---4---4---
-------------------
-------------------
-------------------
verse
-7---8---5----2---3--5----7---8-- then riff A
---------------------------------
---------------------------------
--------------------------------
--------------------------------
---------------------------------

solo

----
---- play this note rapidly for 4 bars
----
----
----
-12-

---
---
-9-  followed by this note,play rapidly for 2 bars
---
---
---

"we keep repeating mistakes ......."

this is keyboard arranged for guitar

-s19-19-19h20p19-19-17h19----17-------------------
--------------------------19----20-19-19h20p19-17-
--------------------------------------------------
--------------------------------------------------
--------------------------------------------------
--------------------------------------------------

-19-19h20p19-19-17h19--19s12-
-----------------------------
-----------------------------
-----------------------------
-----------------------------
-----------------------------

i saw them live this as close to 100%
i did not tabs this but i just made the correction that it is keyboard
not guitar.

=


SongTitle: ex-girlfriend

end of each 2 lines.

hook:
E-------------------------------------------------------------
A-------------------------------------------------------------
D-------------------------------------------------------------
G-----7-----5-----4-----2-----0-------------------------------
B--------------------------------------4---1--0--2-------------
E-----7-----5-----3-----2-----0------0-------------------------

CHORUS:
E---0----7----8----8-------2----8----7----7---------------------
A---2----9---10---10-------4---10----9----9---------------------
D---2----9---10---10-------4---10----9----9---------------------
G---X----X----X----X-------X----X----X----X---------------------
B---0----X----X----X-------X----X----X----X---------------------
E---0----X----X----X-------X----X----X----X---------------------
I KINDA ALWAYS KNEW ID END UP YOUR EX GIRLFRIEND...........


VERSE1:I KINDA ALWAYS NEW ID END UP YOUR EX-GIRLFRIEND
I HOPE I HOLD A SPECIAL PLACE WITH THE REST OF THEM
AND YOU KNOW IT MAKES ME SICK TO BE ON THAT LIST
BUT I SHOULD OF THOUGHT OF THAT BEFORE WE FIRST KISS

VERSE2:YOU SAY YOU'RE GONNA BURN BEFORE YOU MELLOW
I'LL BE THE ONE TO BURN YOU
WHY DID YOU HAVE TO GO AND PICK ME?
WHEN YOU KNEW WE WERE DIFFERENT COMPLETELY.

CHORUS:I KINDA ALWAYS KNEW I'D END UP YOUR EX-GIRLFRIEND
I KINDA ALWAYS KNEW I'D END UP YOUR EX-GIRLFRIEND
I HOPE I HOLD A SPECIAL PLACE WITH THE REST OF THEM
I KINDA ALWAYS KNEW I'D END UP YOUR EX-GIRLFRIEND

IM ANOTHER EX-GIRLFRIEND ON YOUR LIST BUT
I SHOULD OF THOUGHT ABOUT BEFORE WE EVER KISSED

VERSE3:YOUR WILDNESS SCARES ME 
SO DOES YOUR FREEDOM
YOU CAN'T STAND RESTRICTIONS
I FIND MYSELF TRYING TO CHANGE YOU
IF YOU WERE MY LOVER I WOULDNT HAVE TO

AND I FEEL SO MEAN BECAUSE IM IN BETWEEN.
AND I AM ABOUT TO GIVE YOU AWAY.

CHORUS

IM ANOTHER EX-GIRLFRIENDON YOUR LIST
BUT I SHOULD OF THOUGHT OF THAT BEFORE WE KISSED
(REPEAT)

IM ABOUT TO GIVE YOU AWAY FOR SOMEONE ELSE TO TAKE
(2X)

WE KEEP REPEATING MISTAKES FOR SOUVINIRS
AND WE HAVE IN THESE DAYS FOR YEARS
I KNOW WHEN I SEE YOU I AM GOING TO DIE
IM GOING TO WANT YOU AND YOULL KNOW WHY
ITS GOING TO KILL ME TO SEE YOU WITH THE NEXT GIRL
CAUSE' IM OST GEORGOUSLY JEALOUS OF THE EX-GIRL

CHORUS

IM ANOTHER EX-GIRLFRIEND ON YOUR LIST
BUT I SHOULD OF THOUGHT OF THAT BEFORE WE KISSED.
(2X)

WELL THATS ALL ENJOY........(<>..<>).........................:)
            
Submit corrections


        Ex Girlfriend lessons Hard to play? Try these video lessons and learn fast Ex Girlfriend lessons
        
↑ Back to top | Tablatures and chords for acoustic guitar and electric guitar, ukulele, drums are parodies/interpretations of the original songs. You may use it for private study, scholarship, research or language learning purposes only