» » »

Nirvana - Sappy Tabs

Artists:  A B C D E F G H I J K L M N O P Q R S T U V W X Y Z # 

Sappy Tabs

(ver. 4) Click to play this song!
Nirvana
 Rating:
4.3/5 (21 vote)

 Sappy lessons Tabs too difficult? Try these video lessons and learn fast
 
                Intro/Verse]
     B5         B5        B5         G               Em
e|------------------------------|--------------------------------|
B|--------0------------0----0---|--------0-----------------------|
G|------------------------------|--------------------------------|
D|-----4-----------4------------|------------------------2-------|
A|--2-----------2--------2------|-----2---------------2----------|
E|------------------------------|--3---------3/5---0--------0----|

    F#5        F#5       F#5        G5               A5
e|------------------------------|--------------------------------|
B|------------------------------|--------------------------------|
G|------------------------------|---------------------2----------|
D|--------4---------4-------4---|--------5---------2-------------|
A|-----4---------4--------------|-----5---------0--------0-------|
E|--2---------2---------2-------|--3---------3-------------------|

[Chorus]
     B5         B5        B5         G             G       G
e|------------------------------|--------------------------------|
B|--------0------------0----0---|--------0---------0-------------|
G|------------------------------|--------------------------------|
D|-----4-----------4------------|----------------------------0---|
A|--2-----------2--------2------|-----2---------2----------------|
E|------------------------------|--3---------3-----------3-------|

    Em          Em        Em         G             G       G
e|------------------------------|--------------------------------|
B|------------------------------|---------0----------0--------0--|
G|--------0---------------------|--------------------------------|
D|-------------------2----------|--------------------------------|
A|-----2----------2----------2--|------5----------5--------------|
E|--0----------0----------0-----|---3----------3----------3------|

    Em          Em        Em         G             G       G
e|------------------------------|--------------------------------|
B|------------------------------|---------0----------0--------0--|
G|--------0---------------------|--------------------------------|
D|-------------------2----------|--------------------------------|
A|-----2----------2----------2--|------5----------5--------------|
E|--0----------0----------0-----|---3----------3----------3------|

    Em          Em        Em         G             G       G
e|------------------------------|--------------------------------|
B|------------------------------|---------0----------0--------0--|
G|--------0---------------------|--------------------------------|
D|-------------------2----------|--------------------------------|
A|-----2----------2----------2--|------5----------5--------------|
E|--0----------0----------0-----|---3----------3----------3------|

    Em          Em        Em         G             G       G   F#5
e|------------------------------|-----------------------------|--|
B|------------------------------|---------0----------0--------|--|
G|--------0----------0------0---|-----------------------------|--|
D|------------------------------|-----------------------------|-4|
A|-----2----------2-------------|------5----------5-----------|-4|
E|--0----------0---------0------|---3----------3----------3-0-|-2|

[Verse]
     B5         B5        B5         G               Em
e|------------------------------|--------------------------------|
B|--------0------------0----0---|--------0-----------------------|
G|------------------------------|--------------------------------|
D|-----4-----------4------------|------------------------2-------|
A|--2-----------2--------2------|-----2---------------2----------|
E|------------------------------|--3---------3/5---0--------0----|

    F#5        F#5       F#5        G5               A5
e|------------------------------|--------------------------------|
B|------------------------------|--------------------------------|
G|------------------------------|---------------------2----------|
D|--------4---------4-------4---|--------5---------2-------------|
A|-----4---------4--------------|-----5---------0--------0-------|
E|--2---------2---------2-------|--3---------3-------------------|             
Submit corrections


        Sappy lessons Hard to play? Try these video lessons and learn fast Sappy lessons
        
↑ Back to top | Tablatures and chords for acoustic guitar and electric guitar, ukulele, drums are parodies/interpretations of the original songs. You may use it for private study, scholarship, research or language learning purposes only