» » »

Nirvana - Penny Royal Tea Tabs

Artists:  A B C D E F G H I J K L M N O P Q R S T U V W X Y Z # 

Penny Royal Tea Tabs

(ver. 2) Click to play this song!
Nirvana
 Rating:
4/5 (4 votes)
                Pennyroyal tea - Nirvana
This is my first tab, its 100% correct!
 
-----------------
Chords -         
A minor x02210   
G       320003   
-----------------
  
|-----0---0------0---0-----3---3------3---3------------|
|-----1---1------1---1-----0---0------0---0------------|
|-----2---2------2---2-----0---0------0---0------------|
|-----2---2------2---2-----0---0------0---0------------|
|-0-0-0-0-0--0-0-0-0-0-----2---2------2---2------------|
|----------------------3-3-3-3-3--3-3-3-3-3------------|
  (A.M)               (G)

Thats the main pattern....Then


|-------------------------------------------------|
|-------------------------------------------------|
|-------5---------7----------3--------------------|
|-------5---------7----------3--------------------|
|-------3---------5----------1--------------------|
|-------------------------------------------------|

Strum these powerchords
(listen to the song for the timing)

Now heres the solo:

|----------------------------------------------3-3-3----3-2-0-------------|
|---------1b------------------1b---------------0-0-0----------3-2-0-------|
|-2b--2b--2b-2b--2b----2b-2b--2b--2b-2b--------0-0-0----------------2-0---|
|-2b--2b-----2b--2b----2b-2b------2b-2b-----------------------------------|
|-0---0------0b--0b----0b-0b------0b-0b----2-2----------------------------|
|------------------------------------------3-3----------------------------|
 (A.M)                                     (G)

The ""solo"" is simple it looks complicated but really just mess around with "A minor" and "G"
Its played exactly like above.

The ending of the song is just strumming "A Minor"
Enjoy!

\m/ Metallica rule\m/

Gav
            
Submit corrections

↑ Back to top | Tablatures and chords for acoustic guitar and electric guitar, ukulele, drums are parodies/interpretations of the original songs. You may use it for private study, scholarship, research or language learning purposes only