» » »

Nirvana - On A Plain Tabs

Artists:  A B C D E F G H I J K L M N O P Q R S T U V W X Y Z # 

On A Plain Tabs

(ver. 1) Click to play this song!
Nirvana
 Rating:
4/5 (4 votes)
    On A Plain lessons Tabs too difficult? Try these video lessons and learn fast
                
This is 99% right i am so sure of this it's not a fast song and it's easy to play so enjoy

Note-I don't know the mellow part of the song  when he says (somewhere i have heard this before in a dream or
memory strored)

E)-------------------------------------------|
G)-------------------------------------------|
B)-7-7---------------------------------------|
D)-7-7-0-7-7---6-6-3-3-----------------------|
A)-5-5-0-7-7-0-6-6-3-3-232-------------------|
E)-------5-5-0-5-5-2-2-232-------------------|
     Finest date i ever had 

E)-----------------------------------------|
G)-----------------------------------------|
B)-----------------------------------------|
D)-7-7-7-7-7/10-10-10-10-10-10-------------|
A)-7-7-7-7-7/10-10-10-10-10-10-------------|
E)-5-5-0-5-5/8--8--8--8--8--8--------------|
       I'm om a Plain.... (part)
            
Submit corrections

↑ Back to top | Tablatures and chords for acoustic guitar and electric guitar, ukulele, drums are parodies/interpretations of the original songs. You may use it for private study, scholarship, research or language learning purposes only