» » »

Nirvana - Mrs Butterworth Tabs

Artists:  A B C D E F G H I J K L M N O P Q R S T U V W X Y Z # 

Mrs Butterworth Tabs

(ver. 2) Click to play this song!
Nirvana
 Rating:
4/5 (4 votes)
    Mrs Butterworth lessons Tabs too difficult? Try these video lessons and learn fast
                This is from the rehearsal demo on disc one of With the Lights Out.  
This is probably as close as you can get to how Kurt plays it.

VERSE/MAIN RIFF:
G|---------------1-|
D|---2-----------1-|
A|---------------1-|
E|-0---5p3p0-0-0---|
             . .

CHORUS:
G|-9-9-0-7-7-X---------/10-10-10-0-|
D|-9-9-0-7-7-X-7-7-7---/10-10-10-0-|
A|-7-7-0-5-5-X-7-7-7-0-/-8--8--8-0-|
E|-------------5-5-5-0-------------|

(Repeat all parts as necessary.)

. Palm Mute
X String Mute
/ Slide Down
            
Submit corrections

↑ Back to top | Tablatures and chords for acoustic guitar and electric guitar, ukulele, drums are parodies/interpretations of the original songs. You may use it for private study, scholarship, research or language learning purposes only