» » »

Nirvana - Dumb Tabs

Artists:  A B C D E F G H I J K L M N O P Q R S T U V W X Y Z # 

Dumb Tabs

(ver. 5) Click to play this song!
Nirvana
 Rating:
4.3/5 (27 votes)

 Dumb lessons Tabs too difficult? Try these video lessons and learn fast
 
                [Verse]
e|0------------------------0------------------------0------------------------0---------------------------|
B|--3--1--0-------0--1--0-----3--1--0------0--1--0-----3--1--0------0--1--0-----3--1--0------0--1--0-----|
G|--------------2------------------------2------------------------2------------------------2-------------|
D|------------0-----------------------0-------------------------0-----------------------0--------------2-|
A|-------------------------------------------------------------------------------------------------------|
E|-------------------------------------------------------------------------------------------------------|

[Verse]
e|-------------------------------------------------------------------------------------------------------|
B|-----1--0--1------------1--0--1----------1--0--1-------------------------------------------------------|
G|---2-----------------2-----------------2---------------------------------------------------------------|
D|-0------------2---0--------------2--0-------------2----------------------------------------------------|
A|-------------------------------------------------------------------------------------------------------|
E|-------------------------------------------------------------------------------------------------------|

[Verse]
e|0------------------------0------------------------0------------------------0---------------------------|
B|--3--1--0-------0--1--0-----3--1--0------0--1--0-----3--1--0------0--1--0-----3--1--0------0--1--0-----|
G|--------------2------------------------2------------------------2------------------------2-------------|
D|------------0-----------------------0-------------------------0-----------------------0--------------2-|
A|-------------------------------------------------------------------------------------------------------|
E|-------------------------------------------------------------------------------------------------------|

[Chorus]
e|-------------------------------------------------------------------------------------------------------|
B|-----1--0--1------------1--0--1----------1--0--1-------------------------------------------------------|
G|---2-----------------2-----------------2---------------------------------------------------------------|
D|-0------------2---0--------------2--0-------------2----------------------------------------------------|
A|-------------------------------------------------------------------------------------------------------|
E|-------------------------------------------------------------------------------------------------------|

[Bridge]
e|-------------------------------------------------------------------------------------------------------|
B|------------0----------------------------0-------------------------------------------------------------|
G|4--4--0--2--------2--2--0----4--4--0--2-----2--2--0----------------------------------------------------|X2
D|-------------------------------------------------------------------------------------------------------|
A|-------------------------------------------------------------------------------------------------------|
E|-------------------------------------------------------------------------------------------------------|

[Verse]
e|0------------------------0------------------------0------------------------0---------------------------|
B|--3--1--0-------0--1--0-----3--1--0------0--1--0-----3--1--0------0--1--0-----3--1--0------0--1--0-----|
G|--------------2------------------------2------------------------2------------------------2-------------|
D|------------0-----------------------0-------------------------0-----------------------0--------------2-|
A|-------------------------------------------------------------------------------------------------------|
E|-------------------------------------------------------------------------------------------------------|

[Chorus]
e|-------------------------------------------------------------------------------------------------------|
B|-----1--0--1------------1--0--1----------1--0--1-------------------------------------------------------|
G|---2-----------------2-----------------2---------------------------------------------------------------|
D|-0------------2---0--------------2--0-------------2----------------------------------------------------|
A|-------------------------------------------------------------------------------------------------------|
E|-------------------------------------------------------------------------------------------------------|

[Outro]
e|-------------------------------------------------------------------------------------------------------|
B|--0--1--0----------------------------------------------------------------------------------------------|
G|2------------------------------------------------------------------------------------------------------|X12
D|-------------------------------------------------------------------------------------------------------|
A|-------------------------------------------------------------------------------------------------------|
E|-------------------------------------------------------------------------------------------------------|            
Submit corrections


        Dumb lessons Hard to play? Try these video lessons and learn fast Dumb lessons
        
↑ Back to top | Tablatures and chords for acoustic guitar and electric guitar, ukulele, drums are parodies/interpretations of the original songs. You may use it for private study, scholarship, research or language learning purposes only