Home » N » Nino Rota »

Nino Rota - The Godfather Theme Tabs

Artists:  A B C D E F G H I J K L M N O P Q R S T U V W X Y Z # 

The Godfather Theme Tabs
Version #2
Nino Rota


Copy URL
e|---------------------------------------------------------------------------|
B|--15-18-17-15-18-15-17-15-11-13-10---15-18-17-15-18-15-17-15-11-10-8-------|
G|14---------------------------------14--------------------------------------|
D|---------------------------------------------------------------------------|
A|---------------------------------------------------------------------------|
E|---------------------------------------------------------------------------|

e|-----9-12------9-10--------------------------------------------------------|
B|8-11 -----8-11-----------13-11-10-13-11-10-10------------------------------|
G|--------------------7-10----------------------6-7--------------------------|
D|---------------------------------------------------------------------------|
A|---------------------------------------------------------------------------|
E|---------------------------------------------------------------------------|

e|---------------------------------------------------------------------------|
B|15-15-14-13---------17-15-11-10-------10-13-10-8---------8-11-9-10---------|
G|---------------------------------------------------------------------------|
D|---------------------------------------------------------------------------|
A|---------------------------------------------------------------------------|
E|---------------------------------------------------------------------------|

e|---------------------------------------------------------------------------|
B|--15-18-17-15-18-15-17-15-11-13-10--15-18-17-15-18-15-17-15-11-10-8--------|
G|14--------------------------------14---------------------------------------|
D|---------------------------------------------------------------------------|
A|---------------------------------------------------------------------------|
E|---------------------------------------------------------------------------|

e|-----9-12------9-10--------------------------------------------------------|
B|8-11-----8-11-----------13-11-10-13-11-10-10-14-15------------------------|
G|--------------------7-10---------------------------------------------------|
D|---------------------------------------------------------------------------|
A|---------------------------------------------------------------------------|
E|---------------------------------------------------------------------------|

e|----------------------------10-13-17-22-20-18-17-17------------------------|
B|-------------------------10------------------------------------------------|
G|-7-10-9-7-10-7-9-7-3-2-2---------------------------------------------------|
D|7--------------------------------------------------------------------------|
A|---------------------------------------------------------------------------|
E|---------------------------------------------------------------------------|

e|---------------------------------------------------------------------------|
B|-------------------------13-11-13-11-10-8-8--------------------------------|
G|-7-10-9-7-10-7-9-7-3-2-1---------------------------------------------------|
D|7--------------------------------------------------------------------------|
A|---------------------------------------------------------------------------|
E|---------------------------------------------------------------------------|

e|----6-9------------9-10-12-----------9-10----------10-12-13-12-17-22-------|
B|5-8------------8-11-------------8-11---------------------------------------|
G|---------------------------------------------------------------------------|
D|---------------------------------------------------------------------------|
A|---------------------------------------------------------------------------|
E|---------------------------------------------------------------------------|

e|---------------------------------------------------------------------------|
B|----13-11-10-13-11-10-10---------------------------------------------------|
G|7-10----------------------6-7----------------------------------------------|
D|---------------------------------------------------------------------------|
A|---------------------------------------------------------------------------|
E|---------------------------------------------------------------------------|

e|---------------------------------------------------------------------------|
B|15-15-14-13---------17-15-11-10-------10-13-10-8---------8-11-9-10---------|
G|---------------------------------------------------------------------------|
D|---------------------------------------------------------------------------|
A|---------------------------------------------------------------------------|
E|---------------------------------------------------------------------------|

e|---------------------------------------------------------------------------|
B|--15-18-17-15-18-15-17-15-11-13-10---15-18-17-15-18-15-17-15-11-10-8-------|
G|14---------------------------------14--------------------------------------|
D|---------------------------------------------------------------------------|
A|---------------------------------------------------------------------------|
E|---------------------------------------------------------------------------|

e|-----9-12-----15-13-12-10-12-13----10-13-20-18-17-20-18-18-17-20-21-22-----|
B|8-11-----------------------------------------------------------------------|
G|---------------------------------------------------------------------------|
D|---------------------------------------------------------------------------|
A|---------------------------------------------------------------------------|
E|---------------------------------------------------------------------------|            
Submit corrections

↑ Back to top | Tablatures and chords for acoustic guitar and electric guitar, ukulele, drums are parodies/interpretations of the original songs. You may use it for private study, scholarship, research or language learning purposes only