Home » N » Nino Rota »

Nino Rota - Speak Softly Love Tabs

Artists:  A B C D E F G H I J K L M N O P Q R S T U V W X Y Z # 

Speak Softly Love Tabs

(ver. 2) Click to play this song!
Nino Rota
E||----------------------|----------------------|----------------------|
B||----------------------|-------5--------------|----------------------|
G||----------------------|-------5-----7--------|----------------------|
D||-------2--------------|----7-----7--9--------|-------2--------------|
A||-------3-----5--------|----------------------|-------3-----5--------|
E||----5-----5--7--------|----------------------|----5-----5--7--------|


                                                                                
-----------------------||------0--5--8--7--5--8--5--|--7--5--1--3--0-----------|
-------5---------------||---------------5-----------|--------------1-----1-----|
-------5-----9/--------||*--------------5-----------|-----------------2-----2--|
----7-----7------------||*--------------------------|--0-----------------------|
------------------7/---||---------------0-----------|--------------0-----------|
-----------------------||---0-----------------------|--------------------------|


                                                      
-----0--5--8--7--5--8--5--|--7--5--------------------|
--------------5-----------|--------5/-4--3-----------|
--------------5-----------|--------------2-----2-----|
--------------------------|-----------------3-----3--|
--0-----------------------|--0-----------2-----------|
--------------0-----------|--------------------------|


                                                      
--------1--4--7-----------|--------1--4--5-----------|
-----3--------------0-----|-----3--------------5-----|
--------------------------|-----------------5-----5--|
--0--------------6-----6--|--------------------------|
--------------------------|--------------0-----------|
--------------0-----------|--0-----------------------|


                                                      
-----------3--1--0--3--1--|--1--0--0-----------------|
--------1-----------------|--------------------------|
-----2--------------------|-----------1--2-----------|
--------------------------|--1-----2-----------------|
--0-----------------------|--------------0--3--2--3--|
-----------3--0-----------|--------------------------|


                                                      
-----5--5--4--3-----------|--7--5-----1--0-----------|
--------------------0-----|-----0-----0--------1-----|
-----5--5--4-----0-----0--|-----------------0-----0--|
--------------------------|--0-----0-----------------|
--0-----------------------|--------------3-----------|
--------------3-----------|--------------------------|


                                                                   
-----0h-3p-0--------------|--------------0---------|-------------||
--------------3-----------|--------------0---------|-------------||
--------------3-----3-----|-----4h-7p-4--2---------|------------*||
--------------3--3-----3--|--0-----------2----0----|------------*||
--3-----------1-----------|------------------------|--3----2-----||
--------------------------|------------------------|-------------||


                                                  
----------------------------|-------------------||
----------------------------|-------------------||
----------------------------|-------------------||
-----------6h-7p6h7p6h7p6---|--7----------------||
--0-------------------------|-------------------||
----------------------------|-------------------||
            
Submit corrections

↑ Back to top | Tablatures and chords for acoustic guitar and electric guitar, ukulele, drums are parodies/interpretations of the original songs. You may use it for private study, scholarship, research or language learning purposes only