Home » N » Nino Rota »

Nino Rota - Speak Sofly Love Tabs

Artists:  A B C D E F G H I J K L M N O P Q R S T U V W X Y Z # 

Speak Sofly Love Tabs
Version #2
Nino Rota


Copy URL
[Part 1]

               Am          Dm            Am
e|--0--5--8-|--7--5--8--5--7--5-------|--0--------------0--5--8-|--7--5--8--5--7--5-------|
B|--1-------|--5-----------6-----6--8-|--------1--------1-------|--5-----------5-----5--4-|
G|--2-------|--5-----------7----------|-----2-----2-----2-------|--5-----------5----------|
D|----------|--------------0----------|-------------------------|-------------------------|
A|--0-------|--0----------------------|--0-----------0----------|--0-----------0----------|
E|----------|-------------------------|-------------------------|-------------------------|

    Dm                                        Am                                    E7          Am
e|---------------1--4-|--7------------1--4-|--5--------------------3-|--1--0--3--1--1--0--0-------|-----|
B|--3---------3-------|--6---------3-------|--5-----5-----------1----|--1-----------0-------------|-----|
G|--2---------2-------|--7---------2-------|--5--5-----5-----2-------|--2-----------1--------1--2-|--2--|
D|--0------0----------|--0------0----------|-----------------2-------|--------------------------2-|--2--| x2
A|--------------------|--------------------|--0-----------0----------|--0-----------------------0-|--0--|
E|--------------------|--------------------|-------------------------|--------------0-------------|-----|


[Part 2]

    Am            G                       C                         Bb          Dm            E
e|-----5--5--4-|--3------------7--5--1-|--0--------------0--3--0-|--------------------1----|--0-----0--5--8-|
B|-----5--5----|--------0------8--0----|--------1--------1-------|--3--------------3-----4-|--0-----0-------|
G|-----5--5----|-----0-----0---7--0----|-----0-----0-----0-------|--------3--------2-------|--1-----1-------|
D|-------------|-----------------------|-------------------------|-----3-----3--0----------|----------------|
A|--0----------|-----------------------|--3-----------3----------|--1----------------------|----------------|
E|-------------|--3--------------------|-------------------------|-------------------------|--0--0----------|


[Part 3 - Repeats Part 1]

    Am          Dm            Am                                                  Dm
e|--7--5--8--5--7--5-------|--0--------------0--5--8-|--7--5--8--5--7--5-------|---------------1--4-|
B|--5-----------6-----6--8-|--------1--------1-------|--5-----------5-----5--4-|--3---------3-------|
G|--5-----------7----------|-----2-----2-----2-------|--5-----------5----------|--2---------2-------|
D|--------------0----------|-------------------------|-------------------------|--0------0----------|
A|--0----------------------|--0-----------0----------|--0-----------0----------|--------------------|
E|-------------------------|-------------------------|-------------------------|--------------------|

                         Am                                    E7          Am
e|--7------------1--4-|--5--------------------3-|--1--0--3--1--1--0--0--4-|--5--------------------|
B|--6---------3-------|--5-----5-----------1----|--1-----------0----------|--5-----5--------------|
G|--7---------2-------|--5--5-----5-----2-------|--2-----------1----------|--5--5-----5-----------|
D|--0------0----------|-----------------2-------|-------------------------|-----------------------|
A|--------------------|--0-----------0----------|--0----------------------|--0-----------0--------|
E|--------------------|-------------------------|--------------0----------|-----------------------|            
Submit corrections

↑ Back to top | Tablatures and chords for acoustic guitar and electric guitar, ukulele, drums are parodies/interpretations of the original songs. You may use it for private study, scholarship, research or language learning purposes only