» » »

Nina Simone - My Baby Just Cares For Me Acoustic Tabs

Artists:  A B C D E F G H I J K L M N O P Q R S T U V W X Y Z # 

My Baby Just Cares For Me Acoustic Tabs

(ver. 2) Click to play this song!
Nina Simone
 Rating:
4.1/5 (31 vote)

 My Baby Just Cares For Me Acoustic lessons Tabs too difficult? Try these video lessons and learn fast
 
                

[Intro & Chorus]
e|-------------------------------------------------------------------|
B|------1---1---1---1---1---0---0---0---1---1---1---1---1---0---0---0|
G|------0---0---0---0---2---2---0---0---0---0---0---0---2---2---0---0| x 2
D|----------------------------0-------------------------------0------|
A|----3---2---0-----------------------3---2---0----------------------|
E|----------------3---1---0-------3---------------3---1---0-------3--|

[Verse]
e|-----------------------------------------------------------|
B|---1---1---1---1---3---3---3---3---3-3---3---3--3-3---3---3|
G|---2---2---2---2---4---4---4---4---1-1---1---1--1-1---1---1|
D|---------1---------------3-----------------0------------0--|
A|-----3-------3-------5-------5-----------------------------|
E|-1---------------3---------------0-----0------0-----0------|

e|-----------------------------------------------------------3|
B|---1-1---1---1---1-1---1---1---1-1---1---1---1-1---1---1---0|
G|---0-0---0---0---0-0---0---0---2-2---2---2---2-2---2---2---0| x 1
D|-----------2-------------2---0-----0-------0-----0----------|
A|-0-----0-------0-----0-----------------0-------------0------|
E|---------------------------------------------------------3--|

[Chorus]
e|----------------------------------------------------------------|
B|---1---1---1---1---1---0---0---0---1---1---1---1---1---0---0---0|
G|---0---0---0---0---2---2---0---0---0---0---0---0---2---2---0---0| x 2
D|-------------------------0-------------------------------0------|
A|-3---2---0-----------------------3---2---0----------------------|
E|-------------3---1---0-------3---------------3---1---0-------3--|

[Verse]
e|------------------------------------------------------------|
B|---1---1---1---1---3---3---3---3---1-1---1---1---3-3---3---3|
G|---2---2---2---2---4---4---4---4---2-2---2---2---4-4---4---4|
D|---------1---------------3-----------------1-------------3--|
A|-----3-------3-------5-------5------------------------------|
E|-1---------------3---------------1-----1-------3-----3------|

e|------------------------------------------------------------|
B|---1-1---1---1---1-1---1---1---1-1---1---1---0-0---0---0----|
G|---0-0---0---0---2-2---2---2---2-2---2---2---0-0---0---0----|x 1
D|-------------------------2---0-----0-----------------0------|
A|-3-----3---2---0-----0-----------------0--------------------|
E|-------------------------------------------0-----0----------|

[Chorus]
e|----------------------------------------------------------------|
B|---1---1---1---1---1---0---0---0---1---1---1---1---1---0---0---0|
G|---0---0---0---0---2---2---0---0---0---0---0---0---2---2---0---0| x 2
D|-------------------------0-------------------------------0------|
A|-3---2---0-----------------------3---2---0----------------------|
E|-------------3---1---0-------3---------------3---1---0-------3--|


[Verse]
e|-----------------------------------------------------------|
B|---1---1---1---1---3---3---3---3---3-3---3---3--3-3---3---3|
G|---2---2---2---2---4---4---4---4---1-1---1---1--1-1---1---1|
D|---------1---------------3-----------------0------------0--|
A|-----3-------3-------5-------5-----------------------------|
E|-1---------------3---------------0-----0------0-----0------|

e|-----------------------------------------------------------3|
B|---1-1---1---1---1-1---1---1---1-1---1---1---1-1---1---1---0|
G|---0-0---0---0---0-0---0---0---2-2---2---2---2-2---2---2---0| x 1
D|-----------2-------------2---0-----0-------0-----0----------|
A|-0-----0-------0-----0-----------------0-------------0------|
E|---------------------------------------------------------3--|

[Chorus]
e|----------------------------------------------------------------|
B|---1---1---1---1---1---0---0---0---1---1---1---1---1---0---0---0|
G|---0---0---0---0---2---2---0---0---0---0---0---0---2---2---0---0| x 1
D|-------------------------0-------------------------------0------|
A|-3---2---0-----------------------3---2---0----------------------|
E|-------------3---1---0-------3---------------3---1---0-------3--|

[Outro]
e|------------------------------------------------------------|
B|---1---1---1---1---3---3---3---3---1-1---1---1---3-3---3---3|
G|---2---2---2---2---4---4---4---4---2-2---2---2---4-4---4---4|
D|---------1---------------3-----------------1-------------3--|
A|-----3-------3-------5-------5------------------------------|
E|-1---------------3---------------1-----1-------3-----3------|

e|------------------------------------------------------------|
B|---1-1---1---1---1-1---1---1---1-1---1---1---0-0---0---0----|
G|---0-0---0---0---2-2---2---2---2-2---2---2---0-0---0---0----|
D|-------------------------2---0-----0-----------------0------|
A|-3-----3---2---0-----0-----------------0--------------------|
E|-------------------------------------------0-----0----------|

e|------------------------------------------------------------|
B|---1-1---1---1---1-1---1---1---1-1---1---1---0-0---0---0----|
G|---0-0---0---0---2-2---2---2---2-2---2---2---0-0---0---0----|
D|-------------------------2---0-----0-----------------0------|
A|-3-----3---2---0-----0-----------------0--------------------|
E|-------------------------------------------0-----0----------|

e|----------------------|
B|-1-0---------------0-1|
G|-----2-0---------0----| x1
D|---------3-2-0--------|
A|---------------3------|
E|----------------------|            
Submit corrections


        My Baby Just Cares For Me Acoustic lessons Hard to play? Try these video lessons and learn fast My Baby Just Cares For Me Acoustic lessons
        
↑ Back to top | Tablatures and chords for acoustic guitar and electric guitar, ukulele, drums are parodies/interpretations of the original songs. You may use it for private study, scholarship, research or language learning purposes only