Home » N » Nina »

Nina - Love Moves In Mysterious Ways Tabs

Artists:  A B C D E F G H I J K L M N O P Q R S T U V W X Y Z # 

Love Moves In Mysterious Ways Tabs

(ver. 3) Click to play this song!
Nina
E------0-0---------2|---------------------------------|
B---2-3---3-2-0-0-3-|---3-5-7-5-7-8-7-3---------------|
G--------------2----|------------------4-4-6-2h4------|
D-------------------|--0------------------------------|
A--0----------------|---------------------------------|
E-------------------|---------------------------------|


E------0-0---------2|---------------------------------|
B---2-3---3-2-0-0-3-|---3-5-7-5-7-8-7-3---------------|
G--------------2----|------------------4-4-6-2h4------|
D-------------------|--0------------------------------|
A--0----------------|---------------------------------|
E-------------------|---------------------------------|

E------0-0---------2|---------------------------------|
B---2-3---3-2-0-0-3-|---3-5-7-5-7-8-7-3---------------|
G--------------2----|------------------4-4-6-2h4------|
D-------------------|--0------------------------------|
A--0----------------|---------------------------------|
E-------------------|---------------------------------|
            
Submit corrections

↑ Back to top | Tablatures and chords for acoustic guitar and electric guitar, ukulele, drums are parodies/interpretations of the original songs. You may use it for private study, scholarship, research or language learning purposes only