» » »

Nile - Sacrifice Unto SebekIntro Tabs

Artists:  A B C D E F G H I J K L M N O P Q R S T U V W X Y Z # 

Sacrifice Unto SebekIntro Tabs

(ver. 1) Click to play this song!
Nile
 Rating:
4/5 (4 votes)

 Sacrifice Unto SebekIntro lessons Tabs too difficult? Try these video lessons and learn fast
 
                ----------------------------------------------------------------------------
                              SACRIFICE UNTO SEBEK - Nile
----------------------------------------------------------------------------

Tuning: drop A (A-E-a-D-G-B)
************************************
| /   slide up
| \   slide down
| h   hammer-on
| p   pull-off
| ~   vibrato
| +   harmonic
| x   Mute note
| b   Bend
| pb  Pre-bend
| br  Bend release
| pbr Pre-bend release
| brb Bend release bend
| "   Tremolo picking
************************************
NOTE: this tab is from the original fingering found in this video of Karl Sanders 
playing this song:
But the rythm part played by Dallas it ear-transcribed.


KARL'S LEAD
B|------------------------|-------------------------------------|
G|------------------------|-------------------------------------|
D|------------------------|----------------------------13-------|
a|------------------------|----------------------------11-------|
E|------------------0-1-0-|------------------0-1-3-1-0-11-0-1-0-|
A|-6-5-3-0-4-3-1-0--0-1-0-|-6-5-3-0-4-3-1-0--0-1-3-1-0-11-0-1-0-|
 PM***************          ***************

DALLAS' RYTHM
B|------------------------|-------------------------------------|
G|------------------------|-------------------------------------|
D|------------------------|-------------------------------------|
a|------------------------|-------------------------------------|
E|------------------0-1-0-|------------------0-1-3-1-0-1-0-1-0--|
A|-6-5-3-0-4-3-1-0--0-1-0-|-6-5-3-0-4-3-1-0--0-1-3-1-0-1-0-1-0--|
 PM***************          ***************


KARL'S LEAD
B|---------------------------|--------------------------------------------|
G|---------------------------|--------------------------------------------|
D|------------------13-14-13-|-----------------13-14-16-14-13-11-13-14-13-|
a|------------------11-12-11-|-----------------11-12-14-12-11-9--11-12-11-|
E|------------------11-12-11-|-----------------11-12-14-12-11-9--11-12-11-|
A|-6-5-3-0-4-3-1-0--11-12-11-|-6-5-3-0-4-3-1-0-11-12-14-12-11-9--11-12-11-|
 PM***************             ***************

DALLAS' RYTHM
B|---------------------------|--------------------------------------------|
G|---------------------------|--------------------------------------------|
D|---------------------------|--------------------------------------------|
a|---------------------------|--------------------------------------------|
E|------------------0-1-0----|------------------0-1-3-1-0-1-0-1-0---------|
A|-6-5-3-0-4-3-1-0--0-1-0----|-6-5-3-0-4-3-1-0--0-1-3-1-0-1-0-1-0---------|
 PM***************             ***************

Then the fill on the snare drum starts at this point.

MAIN RIFF

KARL'S LEAD
B|------------------------------|
G|------------------------------|
D|------------------------------|
a|------------------------------|
E|-3-5-6--4-3-1-0-7-6-4-0-0-1-0-|
A|--------4-3-1-0-7-6-4-0-0-1-0-|
 PM       *********************

DALLAS' RYTHM
B|------------------------------|
G|------------------------------|
D|------------------------------|
a|------------------------------|
E|-3-5-6--4-3-1-0-7-6-4-0-0-1-0-|
A|--------4-3-1-0-7-6-4-0-0-1-0-|
 PM       *********************



VERSE RIFF

KARL'S LEAD
B|--------------------------------|
G|--------------------------------|
D|--------------------------------|
a|--------5-4---------------------|
E|-3-5-6------6-5--3-5-6--4-3-1-0-|
A|------------------------4-3-1-0-|
 PM                       *******


DALLAS' RYTHM
B|--------------------------------|
G|--------------------------------|
D|--------------------------------|
a|--------5-4---------------------|
E|-3-5-6------6-5--3-5-6--4-3-1-0-|
A|------------------------4-3-1-0-|
 PM                       *******


RIFF 2

KARL'S LEAD
B|----------------------------------------------------------------|
G|----------------------------------------------------------------|
D|----------------------------------------------------------------|
a|-"-"-"-"-----------------14/15-"-"-"-"-----------------14/15\14-|
E|-0-1-9-7--9/10-"-"-14/15-12/13-0-1-9-7--9/10-"-"-14/15-12/13\12-|
A|-0-1-9-7--7/8--7/8-12/13-------0-1-9-7--7/8--7/8-12/13----------|
 PM*******       ***             *******       ***

DALLAS' RYTHM
B|----------------------------------------------------------------|
G|----------------------------------------------------------------|
D|----------------------------------------------------------------|
a|-"-"-"-"-----------------14/15-"-"-"-"-----------------14/15\14-|
E|-0-1-9-7--9/10-"-"-14/15-12/13-0-1-9-7--9/10-"-"-14/15-12/13\12-|
A|-0-1-9-7--7/8--7/8-12/13-------0-1-9-7--7/8--7/8-12/13----------|
 PM*******       ***             *******       ***


SHRANK LICK AND RIFF 3

KARL'S LEAD                           
|------------------------------------X2|
|--------------------------------------|
|-8h9-12-8-7---------8h9-8-6-5---------|
|------------12-8-7------------8-6-5-4-|
|--------------------------------------|
|--------------------------------------|


DALLAS' RYTHM
|------------------------------------X2|
|--------------------------------------|
|-8h9-12-8-7---------8h9-8-6-5---------|
|------------12-8-7------------8-6-5-4-|
|--------------------------------------|
|--------------------------------------|


RIFF 4

KARL'S LEAD
|----------------------------------------------------------------------X2-|
|-------------------------------------------------------------------------|
|-------------------------------------------------------------------------|
|-11-12-11----6-7-6-------------------6-7-6---11-12-11--------------------|
|----------13-------8---------4-3-1-0-------8----------13---------4-3-1-0-|
|---------------------9-8-7-6-4-3-1-0---------------------9-8-7-6-4-3-1-0-|
 PM                   ***************                     ***************

DALLAS' RYTHM
|----------------------------------------------------------------------X2-|
|-------------------------------------------------------------------------|
|-------------------------------------------------------------------------|
|-11-12-11----6-7-6-------------------6-7-6---11-12-11--------------------|
|----------13-------8---------4-3-1-0-------8----------13---------4-3-1-0-|
|---------------------9-8-7-6-4-3-1-0---------------------9-8-7-6-4-3-1-0-|
 PM                   ***************                     ***************


SHRANK RIFF

KARL'S LEAD
|---------------------------X2-|------------------------------------------------|
|------------------------------|------------------------------------------------|
|-7-8-7-6----------------------|7-8-7-6-------7-8-7-6-------7-8-7-6-876---------|
|--------7-8-7-6---------------|-------7-8-7-6-------7-8-7-6-----------875------|
|---------------9-8-6-5-6-5-4-0|------------------------------------------56~~-|
|------------------------------|------------------------------------------------|

DALLAS' RHYTHM
|---------------------------X2-|------------------------------------------------|
|------------------------------|------------------------------------------------|
|-7-8-7-6----------------------|7-8-7-6-------7-8-7-6-------7-8-7-6-876---------|
|--------7-8-7-6---------------|-------7-8-7-6-------7-8-7-6-----------875------|
|---------------9-8-6-5-6-5-4-0|------------------------------------------56~~-|
|------------------------------|------------------------------------------------|


BREAKDOWN (this is where there's the cool melody)

KARL'S LEAD                                                             ^ ^ ^ ^
|-----------------------------------------------------------------------9-9-9-9|X2
|-----------------------------------------------------------------------9-9-9-9|
|----7h10-10-7h10p7h8-6h7p6----------------7h10-10-7h10p7h8-6h7p6-------6-6-6-6|
|0000----------------------8-7-5-4-e--0000----------------------8-7-5-4-6-6-6-6|
|0000------------------------------4~~0000-------------------------------------|
|0000---------------------------------0000-------------------------------------|
PM***                                 ****

e = ^^ 2nd time a pinch harmonic

DALLAS' RHYTHM                                                             ^ ^ ^ ^
|-----------------------------------------------------------------------9-9-9-9|X2
|-----------------------------------------------------------------------9-9-9-9|
|----7h10-10-7h10p7h8-6h7p6----------------7h10-10-7h10p7h8-6h7p6-------6-6-6-6|
|0000----------------------8-7-5-4-e--0000----------------------8-7-5-4-6-6-6-6|
|0000------------------------------4~~0000-------------------------------------|
|0000---------------------------------0000-------------------------------------|
PM***                                 ****

e = ^^ 2nd time a pinch harmonic


KARL'S LEAD CONTD.
|-------------------------------------------------------------|^--^--^--^--|X2
|-------------------------------------------------------------|14-14-14-14-|
|-------------------------------------------------------------|13-13-13-13-|
|-------"-----"-----------------------"-----"---------------"-|11-11-11-11-|
|-"---8-8---6-6-4h6p4h5-8-7-5-1-"---8-8---6-6-4h6p4h5-8-7-5-11|11-11-11-11-|
|-0-0h5-5-0h5-5---------8-7-5-1-0-0h5-5-0h5-5---------8-7-5-11|11-11-11-11-|
PM*     *     *         *****   *     *     *         ***** **



DALLAS' RHYTHM
|-------------------------------------------------------------|^--^--^--^--|X2
|-------------------------------------------------------------|14-14-14-14-|
|-------------------------------------------------------------|13-13-13-13-|
|-------"-----"-----------------------"-----"---------------"-|11-11-11-11-|
|-"---8-8---6-6-4h6p4h5-8-7-5-1-"---8-8---6-6-4h6p4h5-8-7-5-11|11-11-11-11-|
|-0-0h5-5-0h5-5---------8-7-5-1-0-0h5-5-0h5-5---------8-7-5-11|11-11-11-11-|
PM*     *     *         *****   *     *     *         ***** **


SOLO

KARL'S LEAD                                                 w/bar bends
|-21vvvvvvvvvvvv------20-20---------19-19---------18-18-----22(25)(-4)|
|-20vvvvvvvvvvvv-----19---19-------18---18-------17---17--------------|
|-------------------20-----20-----19-----19-----18-----18-------------|
|------------------21-------21---20-------20---19-------19------------|
|-----------------22---------22-21---------21-20---------20-----------|
|---------------------------------------------------------------------|
                  nnnnnn VVVVVV nnnnnn VVVVVV nnnnnn VVVVVV

DALLAS' RHYTHM
|------------------------------| repeat as many times necessary
|------------------------------|
|------------------------------|
|------------------------------|
|-3-5-6--4-3-1-0-7-6-4-0-0-1-0-|
|--------4-3-1-0-7-6-4-0-0-1-0-|
 PM      *********************


OUTRO

KARL'S LEAD
B|------------------------|-------------------------------------|
G|------------------------|-------------------------------------|
D|------------------------|----------------------------13-------|
a|------------------------|----------------------------11-------|
E|------------------0-1-0-|------------------0-1-3-1-0-11-0-1-0-|
A|-6-5-3-0-4-3-1-0--0-1-0-|-6-5-3-0-4-3-1-0--0-1-3-1-0-11-0-1-0-|
 PM***************          ***************

DALLAS' RYTHM
B|------------------------|-------------------------------------|
G|------------------------|-------------------------------------|
D|------------------------|-------------------------------------|
a|------------------------|-------------------------------------|
E|------------------0-1-0-|------------------0-1-3-1-0-1-0-1-0--|
A|-6-5-3-0-4-3-1-0--0-1-0-|-6-5-3-0-4-3-1-0--0-1-3-1-0-1-0-1-0--|
 PM***************          ***************


KARL'S LEAD
B|---------------------------|--------------------------------------------|
G|---------------------------|--------------------------------------------|
D|------------------13-14-13-|-----------------13-14-16-14-13-11-13-14-13-|
a|------------------11-12-11-|-----------------11-12-14-12-11-9--11-12-11-|
E|------------------11-12-11-|-----------------11-12-14-12-11-9--11-12-11-|
A|-6-5-3-0-4-3-1-0--11-12-11-|-6-5-3-0-4-3-1-0-11-12-14-12-11-9--11-12-11-|
 PM***************             ***************

DALLAS' RYTHM
B|---------------------------|--------------------------------------------|
G|---------------------------|--------------------------------------------|
D|---------------------------|--------------------------------------------|
a|---------------------------|--------------------------------------------|
E|------------------0-1-0----|------------------0-1-3-1-0-1-0-1-0---------|
A|-6-5-3-0-4-3-1-0--0-1-0----|-6-5-3-0-4-3-1-0--0-1-3-1-0-1-0-1-0---------|
 PM***************             ***************


HOPE YOU ENJOY!!
            
Submit corrections


        Sacrifice Unto SebekIntro lessons Hard to play? Try these video lessons and learn fast Sacrifice Unto SebekIntro lessons
        
↑ Back to top | Tablatures and chords for acoustic guitar and electric guitar, ukulele, drums are parodies/interpretations of the original songs. You may use it for private study, scholarship, research or language learning purposes only