Home » N » Nightfall »

Nightfall - Master, Faster, Sweet Disaster Tabs

Artists:  A B C D E F G H I J K L M N O P Q R S T U V W X Y Z # 

Master, Faster, Sweet Disaster Tabs

(ver. 1) Click to play this song!
Nightfall
1) main riff
-|----------------------------------------------|-----------------------------
-|----------------------------------------------|-----------------------------
-|----------------------------------------------|-----------------------------
-|-----10--9--7-----7--9--10-10--9-9--10--9--7--|-----7--9--12-12-10-10-10----
-|---------------7------------------------------|--7--------------------------
-|----------------------------------------------|-----------------------------


-9--7-------------------------------------------------------------------------
chorus Em

-|----------------------------------------------------------------------------
-|----------------------------------------------------------------------------
-|----------------------------------------------------------------------------
-|----------------------------------------------------------------------------
-|------2---------------------------------------------------------------------
-|------0---0-2-3-3-2-3-2-3-2-0-----------------------------------------------
            
Submit corrections

↑ Back to top | Tablatures and chords for acoustic guitar and electric guitar, ukulele, drums are parodies/interpretations of the original songs. You may use it for private study, scholarship, research or language learning purposes only