» » »

Niet - Lep Dan Za Smrt Tabs

Artists:  A B C D E F G H I J K L M N O P Q R S T U V W X Y Z # 

Lep Dan Za Smrt Tabs

(ver. 2) Click to play this song!
Niet
 Rating:
4/5 (4 votes)

 Lep Dan Za Smrt lessons Tabs too difficult? Try these video lessons and learn fast
 
                        
0:00

e|--------------------------------------------------|
H|--------------------------------------------------|
G|--------------------5--5--5--4--5--4--5--4--------|
D|--7--5--7--5--7--5--5--5--5--4--5--4--5--4--7--7--|  
A|--7--5--7--5--7--5--3--3--3--2--3--2--3--2--7--7--|
E|--5--3--5--3--5--3--------------------------5--5--|

Sonce zahaja, mene je strah.
Hladni veter vzdiguje prah.
Spomini, asociacije, vizije prihodnosti.




0:13

e|--------------------|
H|--------------------|
G|--------------------|
D|--------------------|
A|--10-7-5-5-7-5-3-3--|
E|--8--5-3-3-5-3-1-1--|

Temne sence padajo na nas.
Zastave plapolajo v vetru.




0:25

e|--------------------------------------------------|
H|--------------------------------------------------|
G|--------------------5--5--5--4--5--4--5--4--------|
D|--7--5--7--5--7--5--5--5--5--4--5--4--5--4--7--7--|  
A|--7--5--7--5--7--5--3--3--3--2--3--2--3--2--7--7--|
E|--5--3--5--3--5--3--------------------------5--5--|

Proseče oči, polne solza
iščejo smisel tega sveta.
Volkovi - plen
krik sedanjosti.




0:33

e|--------------------|
H|--------------------|
G|--------------------|
D|--------------------|
A|--10-7-5-5-7-5-3-3--|
E|--8--5-3-3-5-3-1-1--|

Dolge kolone praznih besed.
Zastave plapolajo v vetru. 
 
 
           E
e|-----------------|
B|-----------------|
G|-----------------|  4x
D|-9-9-9-9-9-9-9-9-|
A|-7-7-7-7-7-7-7-7-|
E|-----------------|



   E        B        C#m        
e|----------------------------------------------|
B|----------------------------------------------|
G|-9------9---------------------14-14-14-13-11--|  4x
D|-9------9-9------9-11------11-14-14-14-13-11--|
A|-7------7-9------9-11------11-12-12-12-11-9---|
E|----------7------7-9-------9------------------|



Verse:
   C#m        E          B          G#m
e|-------------------------------------------------|
B|-------------------------------------------------|
G|-6--6-6--6--9--9-9--9----------------------------|  2x
D|-6--6-6--6--9--9-9--9--9--9-9--9--13--13-13--11--|
A|-4--4-4--4--7--7-7--7--9--9-9--9--11--11-11--9---|
E|-----------------------7--7-7--7-----------------|



0:50
 C#m        E B        G#m
Sonce je sijalo, in sirene so tulile.
   C#m        E  B    G#m
Nebo bilo je modro, skoraj brez oblačka.
      C#m           E  B       G#m
Pod svetlo rumenim soncem sva tekla po cesti,
    C#m          E      B    G#m
Ko naju je objel prvi blisk    sva padla



Chorus:
E   B        A                     B
A- -a, pa tako lep dan je bil, preveč lep za smrt.   4x



   E          B          A          B
e|---------------------------------------------|
B|---------------------------------------------|
G|-9--9-9--9-----------------------------------|  -4x med refrenom
D|-9--9-9--9--9--9-9--9--7--7-7--7--9--9-9--9--|  -4x med solom
A|-7--7-7--7--9--9-9--9--7--7-7--7--9--9-9--9--|
E|------------7--7-7--7--5--5-5--5--7--7-7--7--|


SOLO:

e|-12---12-11-9-----------------------------------------|
B|--------------12---12/14-12-10---10-9-10-12--12/14\12-|
G|------------------------------------------------------|
D|------------------------------------------------------|
A|------------------------------------------------------|
E|------------------------------------------------------|

e|-12---12-11-9--------------------------------12------12----12----|
B|--------------12---12/14-12-10---10-9-10-12-----12------12----12-|
G|-----------------------------------------------------------------|
D|-----------------------------------------------------------------|
A|-----------------------------------------------------------------|
E|-----------------------------------------------------------------|

e|----------------------------------12----12-----|
B|---12-10-9-10----9-10-9-10-9--12-----12----12--|
G|-----------------------------------------------|
D|-----------------------------------------------|
A|-----------------------------------------------|
E|-----------------------------------------------|

e|------------------------------12----|
B|---12-10-9-10----9-10-9-10-9-(14)---|
G|------------------------------------|
D|------------------------------------|
A|------------------------------------|
E|------------------------------------|



Verse:
Ležala sva v krvi sredi gorečega
Zraka in ognja, ležala pod soncem.
Razžarjenim, rdečim, neresničnim,
Sredi obzorja zavitega v dim,
Sredi prvega dne vojne.


Chorus:
E   B        A                     B
A- -a, pa tako lep dan je bil, preveč lep za smrt.   4x


VERZ:
 C#m          E       B       G#m
Moj strah in zadnji dih, drgetanje in jok,
  C#m     E B    G#m
Bliža se smrt, smrt in ne ljubezen.
  C#m   E B       G#m                  C#m        E  B
Tvoje oči   s pogledom tja, kjer je nekoč sijalo sonce,
 G#m
So bile mrtve.


REFREN:
E   B        A                     B
A- -a, pa tako lep dan je bil, preveč lep za smrt   4x     
            
Submit corrections


        Lep Dan Za Smrt lessons Hard to play? Try these video lessons and learn fast Lep Dan Za Smrt lessons
        
↑ Back to top | Tablatures and chords for acoustic guitar and electric guitar, ukulele, drums are parodies/interpretations of the original songs. You may use it for private study, scholarship, research or language learning purposes only